» » »

A Cursive Memory - Piano Song Tabs

Artists:  A B C D E F G H I J K L M N O P Q R S T U V W X Y Z # 

Piano Song Tabs

(ver. 1) Click to play this song!
A Cursive Memory
 Rating:
4/5 (4 votes)


 Piano Song lessons Tabs too difficult? Try these video lessons and learn fast
 
                This is the piano song by a cursive memory.


x = mute string
. = palm mute
~ = let ring
b = bend
h = hold


its in drop D

after piano part (0.27)
E-------------------------------|   E----------|
B-------------------------------|   B----------|
G-------------------------------|x3 G----------|
D---0~-----2~-----4~------7~----|   D--0~------|
A---0~-----2~-----4~------7~----|   A--0~------|
D---0~-----2~-----4~~-----7~----|   D--0~------|


at 59sec. when guy that sounds like blink 182 come in (all palm muted)
(i never thought id say this again.......)
E-----------------------------------------------------------------------|
B-----------------------------------------------------------------------|
G-----------------------------------------------------------------------|x2
D-----------------------------------------------------------------------|
A---0-0-0-0-0-0-0-0--2-2-2-2-2-2-2-2--4-4-4-4-4-4-4-4--7-7-7-7-7-7-7-7--|
D---0-0-0-0-0-0-0-0--2-2-2-2-2-2-2-2--4-4-4-4-4-4-4-4--7-7-7-7-7-7-7-7--|
    . . . . . . . .  . . . . . . . .  . . . . . . . .  . . . . . . . .

  strumming up and down
(if i could turn the clock again to say three words i wish i never said)
E--------------------------------------------------------------------|
B--------------------------------------------------------------------|
G--------------------------------------------------------------------|
D-0-0-0-0-0-0-0-0--2-2-2-2-2-2-2-2--4-4-4-4-4-4-4-4--7-7-7-7-7-7-7-7-|x2
A-0-0-0-0-0-0-0-0--2-2-2-2-2-2-2-2--4-4-4-4-4-4-4-4--7-7-7-7-7-7-7-7-|
D-0-0-0-0-0-0-0-0--2-2-2-2-2-2-2-2--4-4-4-4-4-4-4-4--7-7-7-7-7-7-7-7-|

at this time another guitar comes in and playes a different part
they are played at the same time
Guitar 1
(continues strumming
E--------------------------------------------------------------------|
B--------------------------------------------------------------------|
G--------------------------------------------------------------------|
D-0-0-0-0-0-0-0-0--2-2-2-2-2-2-2-2--4-4-4-4-4-4-4-4--7-7-7-7-7-7-7-7-|
A-0-0-0-0-0-0-0-0--2-2-2-2-2-2-2-2--4-4-4-4-4-4-4-4--7-7-7-7-7-7-7-7-|
D-0-0-0-0-0-0-0-0--2-2-2-2-2-2-2-2--4-4-4-4-4-4-4-4--7-7-7-7-7-7-7-7-|
                                                                     |
guitar 2                                                             |
strumed                                                              |
E-----------------------------------------|                          |both
B-----------------------------------------|                          |x2
G-6-6-6--4-4-4-4-4|------9-9-9--6-6-6-6-6-|                          |
D-x-x-x--x-x-x-x-x|x2----x-x-x--x-x-x-x-x-|x2                        |
A-4-4-4--2-2-2-2-2|------7-7-7--4-4-4-4-4-|                          |
D-----------------------------------------|                          |
                                                                     |
E---------------------------------------------------------------|    |
B---------------------------------------------------------------|    |
G-6-6-6--4-4-4-4-4|------9-9-9--6-6-6-6-6--9-9-9--11-11-11-11-11|    |
D-x-x-x--x-x-x-x-x|x2----x-x-x--x-x-x-x-x--x-x-x---x--x--x--x--x|    |
A-4-4-4--2-2-2-2-2|------7-7-7--4-4-4-4-4--9-9-9---9--9--9--9--9|    |
D---------------------------------------------------------------|    |

after top part let ring
E----------|
B----------|
G----------|
D--0~------|
A--0~------|
D--0~------|


(i never though id say this again.....)
E-----------------------------------------------------------------------|
B-----------------------------------------------------------------------|
G-----------------------------------------------------------------------|x2
D-----------------------------------------------------------------------|
A---0-0-0-0-0-0-0-0--2-2-2-2-2-2-2-2--4-4-4-4-4-4-4-4--7-7-7-7-7-7-7-7--|
D---0-0-0-0-0-0-0-0--2-2-2-2-2-2-2-2--4-4-4-4-4-4-4-4--7-7-7-7-7-7-7-7--|
    . . . . . . . .  . . . . . . . .  . . . . . . . .  . . . . . . . .

strumming up and down
(if i could turn the clock again to say three words i wish i never said)
E--------------------------------------------------------------------|
B--------------------------------------------------------------------|
G--------------------------------------------------------------------|
D-0-0-0-0-0-0-0-0--2-2-2-2-2-2-2-2--4-4-4-4-4-4-4-4--7-7-7-7-7-7-7-7-|x2
A-0-0-0-0-0-0-0-0--2-2-2-2-2-2-2-2--4-4-4-4-4-4-4-4--7-7-7-7-7-7-7-7-|
D-0-0-0-0-0-0-0-0--2-2-2-2-2-2-2-2--4-4-4-4-4-4-4-4--7-7-7-7-7-7-7-7-|


Guitar 1
(continues strumming
E--------------------------------------------------------------------|
B--------------------------------------------------------------------|
G--------------------------------------------------------------------|
D-0-0-0-0-0-0-0-0--2-2-2-2-2-2-2-2--4-4-4-4-4-4-4-4--7-7-7-7-7-7-7-7-|
A-0-0-0-0-0-0-0-0--2-2-2-2-2-2-2-2--4-4-4-4-4-4-4-4--7-7-7-7-7-7-7-7-|
D-0-0-0-0-0-0-0-0--2-2-2-2-2-2-2-2--4-4-4-4-4-4-4-4--7-7-7-7-7-7-7-7-|
                                                                     |
guitar 2                                                             |
strumed                                                              |
E-----------------------------------------|                          |only
B-----------------------------------------|                          |one
G-6-6-6--4-4-4-4-4|------9-9-9--6-6-6-6-6-|                          |time
D-x-x-x--x-x-x-x-x|x2----x-x-x--x-x-x-x-x-|x2                        |now
A-4-4-4--2-2-2-2-2|------7-7-7--4-4-4-4-4-|                          |
D-----------------------------------------|                          |
                                                                     |
E---------------------------------------------------------------|    |
B---------------------------------------------------------------|    |
G-6-6-6--4-4-4-4-4|------9-9-9--6-6-6-6-6--9-9-9--11-11-11-11-11|    |
D-x-x-x--x-x-x-x-x|x2----x-x-x--x-x-x-x-x--x-x-x---x--x--x--x--x|    |
A-4-4-4--2-2-2-2-2|------7-7-7--4-4-4-4-4--9-9-9---9--9--9--9--9|    |
D---------------------------------------------------------------|    |


ok so heres the solo, one guitar playes this part

E-------------------------------|
B-------------------------------|
G-------------------------------|x5
D---0~-----2~-----4~------7~----|
A---0~-----2~-----4~------7~----|
D---0~-----2~-----4~~-----7~----|

and heres the solo
E-------------------12-12|----12-12-10-10-9-9-7-7|
B--9-10--9h10h9h10-------|x2---------------------|
G------------------------|-----------------------|x2
D------------------------------------------------|
A------------------------------------------------|
D------------------------------------------------|

E---12-10-9----------------------10-10-10-9-9|
B-----------10-10-10-10-10-9-9-9-------------|x2
G--------------------------------------------|
D--------------------------------------------|
A--------------------------------------------|
D--------------------------------------------|

E----12-10-9|----10-9-10-9-10-9-10-9--12-10-12-10-12-10-12-10--|
B-----------|x5------------------------------------------------|
G-----------|--------------------------------------------------|
D--------------------------------------------------------------|
A--------------------------------------------------------------|
D--------------------------------------------------------------|

E---14-12-14-12-14-12-14-12--16-14-16-14-16-14-16-14-----|
B--------------------------------------------------------|
G--------------------------------------------------------|
D--------------------------------------------------------|
A--------------------------------------------------------|
D--------------------------------------------------------|


E---17-16-17-16-17-16-17-16--bend every one-19-19-19-19-|
B-------------------------------------------------------|
G-------------------------------------------------------|
D-------------------------------------------------------|
A-------------------------------------------------------|
D-------------------------------------------------------|

strumming
E--------------------------------------------------------------------|
B--------------------------------------------------------------------|
G--------------------------------------------------------------------|
D-0-0-0-0-0-0-0-0--2-2-2-2-2-2-2-2--4-4-4-4-4-4-4-4--7-7-7-7-7-7-7-7-|x2
A-0-0-0-0-0-0-0-0--2-2-2-2-2-2-2-2--4-4-4-4-4-4-4-4--7-7-7-7-7-7-7-7-|
D-0-0-0-0-0-0-0-0--2-2-2-2-2-2-2-2--4-4-4-4-4-4-4-4--7-7-7-7-7-7-7-7-|

Guitar 1
(continues strumming
E--------------------------------------------------------------------|
B--------------------------------------------------------------------|
G--------------------------------------------------------------------|
D-0-0-0-0-0-0-0-0--2-2-2-2-2-2-2-2--4-4-4-4-4-4-4-4--7-7-7-7-7-7-7-7-|
A-0-0-0-0-0-0-0-0--2-2-2-2-2-2-2-2--4-4-4-4-4-4-4-4--7-7-7-7-7-7-7-7-|
D-0-0-0-0-0-0-0-0--2-2-2-2-2-2-2-2--4-4-4-4-4-4-4-4--7-7-7-7-7-7-7-7-|
                                                                     |
guitar 2                                                             |
strumed                                                              |
E-----------------------------------------|                          |
B-----------------------------------------|                          |
G-6-6-6--4-4-4-4-4|------9-9-9--6-6-6-6-6-|                          |x3
D-x-x-x--x-x-x-x-x|x2----x-x-x--x-x-x-x-x-|x2                        |
A-4-4-4--2-2-2-2-2|------7-7-7--4-4-4-4-4-|                          |
D-----------------------------------------|                          |
                                                                     |
E---------------------------------------------------------------|    |
B---------------------------------------------------------------|    |
G-6-6-6--4-4-4-4-4|------9-9-9--6-6-6-6-6--9-9-9--11-11-11-11-11|    |
D-x-x-x--x-x-x-x-x|x2----x-x-x--x-x-x-x-x--x-x-x---x--x--x--x--x|    |
A-4-4-4--2-2-2-2-2|------7-7-7--4-4-4-4-4--9-9-9---9--9--9--9--9|    |
D---------------------------------------------------------------|    |


end it with
E----------|
B----------|
G----------|
D--0~------|
A--0~------|
D--0~------|


this is pretty simple to learn, u just gotta get the strumming right
            
Submit corrections



        Piano Song lessons Hard to play? Try these video lessons and learn fast Piano Song lessons
        
↑ Back to top | Tablatures and chords for acoustic guitar and electric guitar, ukulele, drums are parodies/interpretations of the original songs. You may use it for private study, scholarship, research or language learning purposes only