» » »

Ac/Dc - T N T Tabs

Artists:  A B C D E F G H I J K L M N O P Q R S T U V W X Y Z # 

T N T Tabs

(ver. 3) Click to play this song!
Ac/Dc
 Rating:
4/5 (4 votes)
                pm=palmute
st.=strech

--------------------------------------------------1-----0-----2------------2---------
------2-------------------------------------------2-----0-----2------------2---------
------2-------------------------------------------2-----X-----0------------0---------
------0------------------------------------------ 0-----3-----------3----------3------
						             (pm)           (bend)


-------2-----------------------------------------------------------------------------
-------2------------------2----------------------------------------------------------
-------0------------------2----------------------------------------------------------
---------------3----------0----------------------------------------------------------
	(bend)

Guitar 1
------1----------2-----------3------------4--------------5-------------6-------------
------2----------3-----------4------------5--------------6-------------7-------------
------2----------3-----------4------------5--------------6-------------7-------------
------0----------1-----------2------------3--------------4-------------5--------etc.-


Guitar 2
-------5-----------6----------7-----------8-----------9------------10---------------
-------7(st.)------8(st.)-----9(st.)------10(st.)-----11(st.)------12(st.)-----------
            
Submit corrections

↑ Back to top | Tablatures and chords for acoustic guitar and electric guitar, ukulele, drums are parodies/interpretations of the original songs. You may use it for private study, scholarship, research or language learning purposes only