» » »

Ac/Dc - For Those About To Rock Tabs

Artists:  A B C D E F G H I J K L M N O P Q R S T U V W X Y Z # 

For Those About To Rock Tabs

(ver. 1) Click to play this song!
Ac/Dc
 Rating:
4/5 (4 votes)


 For Those About To Rock lessons Tabs too difficult? Try these video lessons and learn fast
 
                e||--11-11-11-11-11-11-11-11-|11-11-11-11-11-11-11-11-|10-10-10-10-10-10-14-14-|
b||--12-12-12-12-12-12-12-12-|12-12-12-12-12-12-12-12-|12-12-12-12-12-12-12-12-|
g||*-11-11-11-11-11-11-11-11-|11-11-11-11-11-11-11-11-|11-11-11-11-11-11-11-11-|
D||*-------------------------|------------------------|------------------------|
A||--------------------------|------------------------|------------------------|
E||--------------------------|------------------------|------------------------|

e|------------------|------------------|------------------|------------------|
b|------------------|------------------|------------------|------------------|
g|-4----------------|--------------0---|-2--------1-------|------------------|
D|-4----------------|-----------0------|-0--------2-------|------------------|
A|-2----------------|------------------|----------2-------|------------------|
E|------------------|--------3---------|-2-----x--0-------|------------------|

e|------------------|------------------|-3----------------|------------------|
b|------------------|------------------|-3-----3----------|------------------|
g|-4----------------|------------------|-0-----2------1---|------------------|
D|-4----------------|------------------|-0-----0------2---|------------------|
A|-2----------------|------------------|--------------2---|------------------|
E|------------------|------------------|-3-----2------0---|------------------|

e|--12-12-12-12-12-12-12-12-|--12-12-12-12-12-12-12-12-|
b|--12-12-12-12-12-12-12-12-|--12-12-12-12-12-12-12-12-|
g|--11-11-11-11-11-11-11-11-|--11-11-11-11-11-11-11-11-|
D|--------------------------|--------------------------|
A|--------------------------|--------------------------|
E|--------------------------|--------------------------|

e|-------------|----3----|---------|--------0----------|
b|-------------|----3----|--3------|--------0--0-------|
g|-4----4------|----0----|--2--1---|--0-0-0-0----------|
D|-4----4------|----0----|--0--2---|--2-0-2----2-------|
A|-2----0------|---------|-----2---|-------------------|
E|-------------|----3----|--2--0---|-------------------|

e|--------------------------------------------------------|--------------------|
b|-10-(12)-------------(12)--(12)--(12)--(12)--(12)--(12)-|(12)-(12)-(12)-(12)-|
g|--------------------------------------------------------|--------------------|
D|--------------------------------------------------------|--------------------|
A|--------------------------------------------------------|--------------------|
E|--------------------------------------------------------|--------------------|

e|----------------------------------|------------------5----------------------|
b|(12)-(12)-(12)-(12)-(12)-(12)-\---|8-10--8-10----------8--5---5-------------|
g|-------------------------------\--|-------------------------8---8--7--5-----|
D|----------------------------------|-------------------------------------7-\-|
A|----------------------------------|----------------------------------------\|
E|----------------------------------|-----------------------------------------|

e|----------------------------------------------5-----------5------------5----|
b|--------------------------------------------5---8-5-----5---8--5-----5---8-5|
g|--------------------7-9--7--5--7--------7-9---------7-9----------7-9--------|
D|5----x----7\----------------------------------------------------------------|
A|----------------------------------------------------------------------------|
E|----------------------------------------------------------------------------|

e|------5-----------5-------5-------------10----8--9--8-----------------------|
b|----5---8-5-----5---8-5-----7-8---7-------------------10-----12-13-12-10--12|
g|7-9---------7-9---------7---7-8---7-----------------------------------------|
D|----------------------------------------------------------------------------|
A|----------------------------------------------------------------------------|
E|----------------------------------------------------------------------------|

e|---------------------------12---12---12----\--------------------------------|
b|-13-12-13------12-12-14---------12---14----\---/13-15-17--13-13-15-13-10--13|
g|----------------------------------------------------------------------------|
D|----------------------------------------------------------------------------|
A|----------------------------------------------------------------------------|
E|----------------------------------------------------------------------------|

that's as far as this thing will let me go...if you want the rest of the solo mail me
            
Submit corrections



        For Those About To Rock lessons Hard to play? Try these video lessons and learn fast For Those About To Rock lessons
        
↑ Back to top | Tablatures and chords for acoustic guitar and electric guitar, ukulele, drums are parodies/interpretations of the original songs. You may use it for private study, scholarship, research or language learning purposes only