» » »

Abba - One Man One Woman Bass

Artists:  A B C D E F G H I J K L M N O P Q R S T U V W X Y Z # 

One Man One Woman Bass

(ver. 1) Click to play this song!
Abba
 Rating:
4/5 (4 votes)


 One Man One Woman lessons Tabs too difficult? Try these video lessons and learn fast
 
                ++++++++++++++++++++++++++++
| ABBA- One Man, One Woman |
++++++++++++++++++++++++++++


"You and me to the end..."


Tuning: EADG


Intro
1.
G|-----------------------------------|
D|-2h4p2~------------------7~--------|
A|---------2~--4~--5~--7~------------|
E|-----------------------------------|

Verse
"No smile not a single word..."
2.
G|---------------------------------------------|
D|---------------------------------------------|
A|-0---00----4---44----5---55---------5~--7----|
E|-------------------------------0---------0~--|

"So much that I wanna say..."
3.
G|--------------------------------------------------------------------|
D|------------------------------------------------4~--------------2~--|
A|-0---00----4---44----5---55-----0---0-2---234~------2~--4~--5~------|
E|-------------------------------0------------------------------------|

Chorus
"One man, one woman..."
4.
G|---------------------------------------------------------------|
D|------2h4p2~---2\0~---0--------------------234~---4\2~---2h4p2-|
A|-0~---------------------0~---4-5~---5-0~-----------------------|
E|---------------------------------------------------------------|

"One man,one woman..."
5.
G|---------------------------------------------------------------------------------|
D|------2h4p2~---2\0~---0---------------------------2-4~----0~--1~--2~---7~--------|
A|-0~---------------------0~---4-5~---5-0~---0/7~----------------------------------|
E|---------------------------------------------------------------------------------|

Verse
"Outside I can see the sun..."
6.
G|-----------------------------------------------|
D|-----------------------------------------------|
A|-0---00---234---44---45---55----------5~--7----|
E|--------------------------------0~---------0~--|

"What's wrong what is happening?"
7.
G|--------------------------------------------------------------------|
D|------------------------------------------------4~--------------2~--|
A|-0---00---234---44----5---55----0---0-2---234~------2~--4~--5~------|
E|--------------------------------------------------------------------|

Chorus
"One man, one woman..."
8.
G|---------------------------------------------------------------|
D|------0h1h2~---2\0~---0--------------------234~---4\2~---2h4p2-|
A|-0~---------------------0~---4-5~---5-0~-24--------------------|
E|---------------------------------------------------------------|

"One man,one woman..."
9.
G|----------------------------------------------------------------------------------|
D|------2h4p2~---2\0~---0---------------------------2-4~--2~--0~--1~--2~---x--------|
A|-0~---------------------0~---4-5~---5-0~---0/7~-----------------------------------|
E|----------------------------------------------------------------------------------|

Brodge
10.
G|-----------------------------------|
D|-2h4p2~------------------7~--------|
A|---------2~--4~--5~--7~------------|
E|-----------------------------------|

11.
G|---------------------------------------------------------|
D|-------7-------4-7-2-0~------------------------7~--------|
A|-5-0~----7~--------------4~----2~--4~--5~--7~------------|
E|---------------------------------------------------------|

Verse
"Daydreams of a better life..."
12.
G|------------------------------------------------------|
D|-------------------------42---------------------------|
A|-0x---00x---0244x---44x----40x---02x---54x----5~--7---|
E|-----------0---------------------------------------0~-|

"You smile and I realise..."
13.
G|-------------------------------------------------------------------------------|
D|-------------------------42--------0x------------------------------------2~----|
A|-0x---00x---0244x---44x----420x---0-----54x---42x----0~------2~--4~--5~--------|
E|-----------0---------------------------------------------2~--------------------|

Chorus
"One man, one woman..."
14.
G|---------------------------------------------------------------|
D|------0--2~----2\0~---0--------------------234~---4\2~---2h4p2-|
A|-0~---------------------0~---4-5~---5-0~-24--------------------|
E|---------------------------------------------------------------|

"One man,one woman..."
15.
G|---------------------------------------------------------------------------------------|
D|------0h1h2~---2\0~---0---------------------------2-4~--2~--0~--1~--2~---0~---0--------|
A|-0~---------------------0~---4-5~---5-0~---0/7~---------------------------------4~---4-|
E|---------------------------------------------------------------------------------------|

"You and me to the end..."
16.
G|-----------------------|
D|-----------------------|
A|-2~--4~--5~--7~--------|
E|-----------------------|

Outro
17.
G|---------------------------------------------------------------------------|
D|------0~--2~---4-2-0~---4h6-7~--7h9-9-----0~---0--------234~-----2h4p2~----|
A|-0~-----------------------------------2h4--------0-0~----------4-----------|
E|---------------------------------------------------------------------------|

Play until fades out

Please rate thanks!


Lyrics:

No smiles, not a single word at the breakfast table 
Though I would have liked to begin 
So much that I wanna say, but I feel unable 
You leave and slam the door 
Like you've done many times before 
And I cry and I feel so helpless 

One man, one woman 
Two friends and two true lovers 
Somehow we'll help each other through the hard times 
One man, one woman 
One life to live together 
One chance to take that never comes back again 
You and me, to the end 

Outside I can see the sun through the open window 
Inside everything feels so cold 
What's wrong, what is happening, where did all our love go 
Sometimes when I just can't cope 
I cling to a desperate hope 
And I cry and I feel like dying 

Daydreams of a better life, but I have to wake up 
The sound of a key in the door 
You smile and I realise that we need a shake-up 
Our love is a precious thing 
Worth the pain and the suffering 
And it's never too late for changing 



+++++++++++
| Raileff |
+++++++++++
            
Submit corrections



        One Man One Woman lessons Hard to play? Try these video lessons and learn fast One Man One Woman lessons
        
↑ Back to top | Tablatures and chords for acoustic guitar and electric guitar, ukulele, drums are parodies/interpretations of the original songs. You may use it for private study, scholarship, research or language learning purposes only