» » »

6 Cycle Mind - Sandalan Bass

Artists:  A B C D E F G H I J K L M N O P Q R S T U V W X Y Z # 

Sandalan Bass

(ver. 2) Click to play this song!
6 Cycle Mind
 Rating:
4/5 (4 votes)


 Sandalan lessons Tabs too difficult? Try these video lessons and learn fast
 
                fist tym ko lng po mag lagay ng tab d2
kung may mali,suggestion and opinions pls cnd it 2 me at
add nyo na rin me sa friendster nyo
paki-rate na lng po ung tab

Song Name: Sandalan

Intro:4x
E]-3---3----------7---7-----------|
A]--------0---0-------------------|
D]------------------------0---0---|
G]--------------------------------|

Verse 1:
E]--------------------------------|
A]-----3h5---5s7------------------|===>>>3x lng po(sabay po sa lead)
D]--------------------------------|
G]--------------------------------|
{then}

E]---------------5----------7-----|
A]--------------5----------7------|
G]--------44444----4-66666---6----|
D]--------------------------------|

Pre Chorus:( timingan nio na lng )
E]-------00------------10---------|
A]------------0---7--9------------|
G]--------------------------------|
D]--------------------------------|

Chorus:

E]------------------7-------------|
A]---------------7----------------|===>>>2x
G]----44444--6--------------------|
D]--------------------------------|

E]------------3s5----5555---------|
A]---------3----------------------|===>>>2x
G]----222-------------------------|
D]--------------------------------|

E]------------------7-------------|
A]---------------7----------------|===>>>2x
G]----44444--6--------------------|
D]--------------------------------|

E]------------3s5----5555---------|
A]---------3----------------------|===>>>2x
G]----222-------------------------|
D]--------------------------------|

(then)
E]-3---3----------7---7-----------|
A]--------0---0-------------------|
D]------------------------0---0---|
G]--------------------------------|

Verse2:

E]--------------------------------|
A]-----3h5---5s7------------------|===>>>3x lng po(sabay po sa lead)
D]--------------------------------|
G]--------------------------------|
{then}

E]---------------5----------7-----|
A]--------------5----------7------|
G]--------44444----4-66666---6----|
D]--------------------------------|

then(Chorus)

Outtro:4x(nag cmula sa "sige lng" tapos ng chorus)
E]-3---3----------7---7-----------|
A]--------0---0-------------------|
D]------------------------0---0---|
G]--------------------------------|
                       
                                      Tab by: Juan Paulo B. Ballaran
            
Submit corrections



        Sandalan lessons Hard to play? Try these video lessons and learn fast Sandalan lessons
        
↑ Back to top | Tablatures and chords for acoustic guitar and electric guitar, ukulele, drums are parodies/interpretations of the original songs. You may use it for private study, scholarship, research or language learning purposes only