» » »

6 Cycle Mind - Kung Wala Na Nga Tabs

Artists:  A B C D E F G H I J K L M N O P Q R S T U V W X Y Z # 

Kung Wala Na Nga Tabs

(ver. 1) Click to play this song!
6 Cycle Mind
 Rating:
4/5 (4 votes)


 Kung Wala Na Nga lessons Tabs too difficult? Try these video lessons and learn fast
 
                Song Title: Kung Wala Na Nga
Artist/Band: 6cyclemind


this is 98% accurately.....



E|---------3-5-7-------5-7-9--------7-9--10-12-10-10-12-14~--|
B|---3-5-7-------5-7-8-------7-8-10--------------------------|
G|-----------------------------------------------------------|
D|-----------------------------------------------------------|
A|-----------------------------------------------------------|
E|-----------------------------------------------------------|



E|---15~-14~-----------------------------------------------------------|
B|-----------15~-10-10-10-10-10-10-10-10-10-10-10-10-10-10-10-10--15---|
G|---------------------------------------------------------------------|
D|---------------------------------------------------------------------|
A|---------------------------------------------------------------------|
E|---------------------------------------------------------------------|



hope you like it...... ^_^
            
Submit corrections



        Kung Wala Na Nga lessons Hard to play? Try these video lessons and learn fast Kung Wala Na Nga lessons
        
↑ Back to top | Tablatures and chords for acoustic guitar and electric guitar, ukulele, drums are parodies/interpretations of the original songs. You may use it for private study, scholarship, research or language learning purposes only