» » »

3 Doors Down - Not Enough Bass

Artists:  A B C D E F G H I J K L M N O P Q R S T U V W X Y Z # 

Not Enough Bass

(ver. 1) Click to play this song!
3 Doors Down
 Rating:
4/5 (4 votes)


 Not Enough lessons Tabs too difficult? Try these video lessons and learn fast
 
                ---------------------------------------------------
    Not Enough - 3 Doors Down(The Better Life)
---------------------------------------------------


Tuning: Standard


Intro(light part) 

G|-----------|                 |-----------| 
D|-----------| --Play 7x, then |-----------|
A|-0-3-------|                 |-0-3-------|
E|-----1-3---|                 |-----1-----|


Intro(heavy part)

G|-------------|-------------|                 |-------------|----------------|
D|-------------|-------------| --Play 3x, then |-------------|----------------|
A|--------0-0--|-3-----------|                 |--------0-0--|-3--------------|
E|-3--3-3------|----1-1-3-3--|                 |-3--3-3------|----1-1-3-3---3-|


Verse 1

G|-----------|                    
D|-----------| --Play 4x                    
A|-0-3-------|                    
E|-----1-3---|                    


Chorus 1

G|-------------|-------------|                 |-------------|----------------|
D|-------------|-------------| --Play 3x, then |-------------|----------------|
A|--------0-0--|-3-----------|                 |--------0-0--|-3--------------|
E|-3--3-3------|----1-1-3-3--|                 |-3--3-3------|----1-1-3-3---3-|


*A*


Verse 2

G|-----------|
D|-----------| --Play 8x
A|-0-3-------|
E|-----1-3---|


Chorus 2

G|-------------|-------------|
D|-------------|-------------| --Play 4x (8x second time)
A|--------0-0--|-3-----------|
E|-3--3-3------|----1-1-3-3--|


-go to *A* first time through


Outro

G|-----------|                 |-------------|
D|-----------| --Play 3x, then |-------------|
A|-0-3-------|                 |-0-3---------|
E|-----1-3---|                 |-----1-------|
            
Submit corrections



        Not Enough lessons Hard to play? Try these video lessons and learn fast Not Enough lessons
        
↑ Back to top | Tablatures and chords for acoustic guitar and electric guitar, ukulele, drums are parodies/interpretations of the original songs. You may use it for private study, scholarship, research or language learning purposes only