» » »

3 Doors Down - Let Me Be Myself Bass

Artists:  A B C D E F G H I J K L M N O P Q R S T U V W X Y Z # 

Let Me Be Myself Bass

(ver. 1) Click to play this song!
3 Doors Down
 Rating:
4/5 (4 votes)


 Let Me Be Myself lessons Tabs too difficult? Try these video lessons and learn fast
 
                Let me be Myself by 3 Doors Down

Standard Tuning 



Verse 1:


I guess i just got lost , being someone else
G|----------------------|-------------------|
D|----------------------|-------------------|
A|----------------------|-/7p5--------------|
E|----------------/8----|---------------5---|


I tried to kill the pain , but nothing ever helped
G|-----------------------|------------------------|
D|-----------------------|------------------------|
A|-----------------------|------------------------|
E|------------------1----|------------------3-----|


I left myself behind , somewhere along the way
G|-------------------|------------------------|
D|-------------------|------------------------|
A|-------------------|-/7p5-------------------|
E|-----------/8------|---------------------5--|


hoping to come back around , to find myself someday
G|-----------------------|-------------------------|
D|-----------------------|-------------------------|
A|-----------------------|-------------------------|
E|------------------1----|------------------3------|



Pre-Chorus:

   Lately     I'm         so tired of waiting for you
G|----------------------|----------------------------|
D|----------------------|----------------------------|
A|----------------------|----------------------------|
E|-1--------------------|-3--------------------------|


   to         say          it's okay, tell me please...
G|-----------------------|-----------------------------|
D|-----------------------|-----------------------------|
A|-----------------------|-----------------------------|
E|-1---------------------|-3---------------------------|



Chorus:

   Would you one time just let me be myself
G|----------------------|--------------------|
D|----------------------|--------------------|
A|-3--------------------|--------------------|
E|----------------------|-3------------------|


   So I can shine with my own light , Let me be myself
G|----------------------------------|-----------------------|
D|----------------------------------|-----------------------|
A|----------------------------------|-----------------------|
E|----------1-----------------------|--5----------3---------|



Verse 2:


  'Cause I'll never find my heart , behind someone else
G|--------------------------------|--------------------|
D|--------------------------------|--------------------|
A|--------------------------------|--/7p5--------------|
E|-(3)---------------------/8-----|---------------5----|


I'll never see the light of day , living in this cell
G|------------------------------|--------------------|
D|------------------------------|--------------------|
A|------------------------------|--------------------|
E|----------------1-------------|---------------3----|


It's time to make my way , into the world i knew
G|-----------------------|----------------------|
D|-----------------------|----------------------|
A|-----------------------|-/7p5-----------------|
E|----------------/8-----|------------------5---|


And then take back all of these times , that i gave in to you
G|------------------------------------|-----------------------|
D|------------------------------------|-----------------------|
A|------------------------------------|-----------------------|
E|------------------1-----------------|-------------------3---|



Pre-Chorus:

   Lately     I'm         so tired of waiting for you
G|----------------------|----------------------------|
D|----------------------|----------------------------|
A|----------------------|----------------------------|
E|-1--------------------|-3--------------------------|


   to         say          it's okay, tell me please...
G|-----------------------|-----------------------------|
D|-----------------------|-----------------------------|
A|-----------------------|-----------------------------|
E|-1---------------------|-3---------------------------|



Chorus: (played twice)

   Would you one time just let me be myself
G|----------------------|--------------------|
D|----------------------|--------------------|
A|-3--------------------|--------------------|
E|----------------------|-3------------------|


   So I can shine with my own light , Let me be myself
G|----------------------------------|-----------------------|
D|----------------------------------|-----------------------|
A|----------------------------------|-----------------------|
E|----------1-----------------------|--5----------3---------|



Solo: (not sure)


G|----------------------|----------------------|
D|----------------------|----------------------|
A|-3--3-----3/8--7--7---|-3--3-----3/8--7--7---|
E|----------------------|----------------------|

  That's all I've ever    wanted from this world
G|---------------------|--------------------------|
D|---------------------|--------------------------|
A|-------5--------5----|--5--5--------------------|
E|---------------------|--------8--8--7--7--5--5--|

                          is  to   let  me be 
G|----------------------|----------------------|
D|----------------------|----------------------|
A|-3--3-----3/8--7--7---|-3--3-----3/8--7--7---|
E|----------------------|----------------------|

         me
G|---------------------|--------------------------|
D|---------------------|--------------------------|
A|-------5--------5----|--5-----------------------|
E|---------------------|--------------------------|



Outro: (just like the chorus)

   Would you one time just let me be myself
G|----------------------|--------------------|
D|----------------------|--------------------|
A|-3--------------------|--------------------|
E|----------------------|-3------------------|


   So I can shine with my own light , Let me be myself for a while
G|----------------------------------|-----------------------------|
D|----------------------------------|-----------------------------|
A|----------------------------------|-----------------------------|
E|----------1-----------------------|--5----------3---------------|
            
Submit corrections



        Let Me Be Myself lessons Hard to play? Try these video lessons and learn fast Let Me Be Myself lessons
        
↑ Back to top | Tablatures and chords for acoustic guitar and electric guitar, ukulele, drums are parodies/interpretations of the original songs. You may use it for private study, scholarship, research or language learning purposes only