» » »

Kryponite Bass - 3 Doors Down

Artists:  A B C D E F G H I J K L M N O P Q R S T U V W X Y Z # 

Kryponite Bass

(ver. 1) Click to play this song!
3 Doors Down
4/5 (4 votes)
    Kryponite lessons Tabs too difficult? Try these video lessons and learn fast
                3 Doors down
Ryan Gamari - the bassist for the randoms

G --------------  repeat for verses follow guitar
D --------------
A --------------     
E --3--5--7-----  


G ---------------------------------- repeat for chorus and for guitar solo
D ----------------------------------     
A --------------------------5-5-5-5-     
E --7-7-7-7-7-7-7-7-3-3-3-3--------- 


G ----------------------------------  play after the first guitar solo
D ----------------------------------     
A --------------------------3-3-3-3-     
E --7-7-7-7-7-7-7-7-5-5-5-5---------
Submit corrections

↑ Back to top | Tablatures and chords for acoustic guitar and electric guitar, ukulele, drums are parodies/interpretations of the original songs. You may use it for private study, scholarship, research or language learning purposes only