» » »

3 Doors Down - Citizen Soldier Bass

Artists:  A B C D E F G H I J K L M N O P Q R S T U V W X Y Z # 

Citizen Soldier Bass

(ver. 3) Click to play this song!
3 Doors Down
 Rating:
4/5 (4 votes)


 Citizen Soldier lessons Tabs too difficult? Try these video lessons and learn fast
 
                Band: 3 Doors Down
Tuning: Drop C

I know 3DD doesn’t usually play in drop C but it sounds right


Intro

F|-----------------------------------|
C|-----------------------------------|
G|-----------------------------------|
C|-7-7-7-7-7-7-7-7-5-5-5-5-3-3-3-3---|    x4


Then no bass {0:19}

{0:29} Verse

F|---------------------------------------------------------------------------------------|
C|---------------------------------------------------------------------------------------|
G|---------------------------------------------------------------------------------------|
C|-5/8-8-8-8-5/8-8-8-8-9~--5/8-8-8-8-5/8-8-8-8-10\5--5/8-8-8-8-5/8-8-8-10\5--5-5-5-3-3-3-|   x2


Pre-Chorus

F|---------------------------------------|
C|---------------------------------------|
G|---------------------------------------|
C|-0-0-0~--7-7-7-5-5-5-3—3-3~--3/7-7-5-5-|  x1

Chorus

F|-------------------------------------------------|
C|-------------------------------------------------|
G|----------1-1-1-1-3-3-3-3------------------------|
C|-0-0-4-0~-----------------0-0-4-0~--8-7-4/10-3-5-|   x2


Verse 

F|---------------------------------------------------------------------------------------|
C|---------------------------------------------------------------------------------------|
G|---------------------------------------------------------------------------------------|
C|-5/8-8-8-8-5/8-8-8-8-9~--5/8-8-8-8-5/8-8-8-8-10\5--5/8-8-8-8-5/8-8-8-10\5--5-5-5-3-3-3-|   x3



Pre-Chorus

F|---------------------------------------|
C|---------------------------------------|
G|---------------------------------------|
C|-0-0-0~--7-7-7-5-5-5-3—3-3~--3/7-7-5-5-|  x1


Chorus

F|-------------------------------------------------|
C|-------------------------------------------------|
G|----------1-1-1-1-3-3-3-3------------------------|
C|-0-0-4-0~-----------------0-0-4-0~--8-7-4/10-3-5-|   x2


Bridge {same as intro}


F|-----------------------------------|
C|-----------------------------------|
G|-----------------------------------|
C|-7-7-7-7-7-7-7-7-5-5-5-5-3-3-3-3---|    x8



Pre-Chorus {3:08}

F|---------------------------------------|
C|---------------------------------------|
G|---------------------------------------|
C|-0-0-0~--7-7-5-5-3-3~--3/7-7-5-5-------|  

F|-------------------------------------|
C|-------------------------------------|
G|-------------------------------------|
C|-9-9-9~--7-7-5-5-3-3/9-9~--7-7-5-5---|



Chorus {play hard}

F|-------------------------------------------------|
C|-------------------------------------------------|
G|----------1-1-1-1-3-3-3-3------------------------|
C|-0-0-4-0~-----------------0-0-4-0~--8-7-4/10-3-5-|   x8



Outro

F|---------------------------------------------------------------------------------------|
C|---------------------------------------------------------------------------------------|
G|---------------------------------------------------------------------------------------|
C|-5/8-8-8-8-5/8-8-8-8-9~--5/8-8-8-8-5/8-8-8-8-10\5--5/8-8-8-8-5/8-8-8-10\5--5-5-5-3-3-3-|   x2


End on:

F|------|
C|------|
G|------|
C|-0~~~-|




any questions or comments
            
Submit corrections



        Citizen Soldier lessons Hard to play? Try these video lessons and learn fast Citizen Soldier lessons
        
↑ Back to top | Tablatures and chords for acoustic guitar and electric guitar, ukulele, drums are parodies/interpretations of the original songs. You may use it for private study, scholarship, research or language learning purposes only