» »

/0-9/311-tabs-28.html

»

311 - Theres Always An Excuse Bass

Artists:  A B C D E F G H I J K L M N O P Q R S T U V W X Y Z # 

Theres Always An Excuse Bass

(ver. 1) Click to play this song!
311
 Rating:
4/5 (4 votes)


 Theres Always An Excuse lessons Tabs too difficult? Try these video lessons and learn fast
 
                -------------------------------------------------------------------------------
			 There's Always an Excuse - 311
-------------------------------------------------------------------------------


Tuning:Standard 5-String BEADG

Riff 1 (used through most of the song)
G|---------------------------------------------------------------------------|
D|---------------------------------------------------------------------------|
A|---------5---------5---------3---------3-----------------------------------|
E|-----2-5-------2-5-------0-3-------0-3-------------------------------------|
B|-3-3-------3-3-------1-1-------1-1-----------------------------------------|
Threre's always...
G|---------------------------------------------------------------------------|
D|---------------------------------------------------------------------------|
A|---------5---------5---------3---------3-----------------------------------|
E|-----2-5-------2-5-------0-3-------0-3-------------------------------------|
B|-3-3-------3-3-------1-1-------1-1-----------------------------------------|
There's always...

Riff 2
G|---------------------------------------------------------------------------|
D|---------------------------------------------------------------------------|
A|-----------------------------------------------------3-2-------------------|
E|-1-1-1-1-3-3-3-3-1-1-1-1-3-5-3-1-1-1-1-1-3-3-3-3-0-3-----------------------|
B|---------------------------------------------------------------------------|
  P.M.
G|---------------------------------------------------------------------------|
D|---------------------------------------------------------------------------|
A|-----------------3-3-3-3-2-2-2-2-------------------------------------------|
E|-0-0-0-0-3-3-3-3-----------------------------------------------------------|
B|---------------------------------------------------------------------------|
  P.M.
G|---------------------------------------------------------------------------|
D|---------------------------------------------------------------------------|
A|-----------------3-3-3-3-2-2-2-2-0-0-0-0-----------------------------------|
E|-0-0-0-0-3-3-3-3-------------------------3-3-3-3-2-2-2-2-1-1-1-1-----------|
B|---------------------------------------------------------------------------|


Riff 3                                                           *2nd time
G|---------------------------------------------------------------------------|
D|---------------------------------------------------------------------------|
A|---------------------------------1-1-1-1-1-1-1-1-1-1-1-1-1-1-1-1-----------|x2
E|-1-1-1-1-1-1-1-1-1-1-1-1-1-1-1-1------------------------------(1)----------|
B|---------------------------------------------------------------------------|


Riff 4
G|---------------------------------------------------------------------------|
D|---------------------------------------------------------------------------|
A|---4-5-7-5-4---------5-----------------------------------------------------|
E|-5-----------5-5-5\3---3-3-3/5---------------------------------------------|
B|---------------------------------------------------------------------------|

| /  slide up
| \  slide down
| h  hammer-on
| p  pull-off
| ~  vibrato
| +  harmonic
| x  Mute note
============================++=================================================
            
Submit corrections



        Theres Always An Excuse lessons Hard to play? Try these video lessons and learn fast Theres Always An Excuse lessons
        
↑ Back to top | Tablatures and chords for acoustic guitar and electric guitar, ukulele, drums are parodies/interpretations of the original songs. You may use it for private study, scholarship, research or language learning purposes only