» »

/0-9/311-tabs-28.html

»

311 - Solar Flare Bass

Artists:  A B C D E F G H I J K L M N O P Q R S T U V W X Y Z # 

Solar Flare Bass

(ver. 2) Click to play this song!
311
 Rating:
4/5 (4 votes)


 Solar Flare lessons Tabs too difficult? Try these video lessons and learn fast
 
                
I think this tab is about 90% correct, the beggining of the chorus
may be a little bit too high but other than that it should be correct. Listen to the song
to get the timing down


Intro:
G:-------------------------------------------------------------------------|
D:-------------------------------------------------------------------------|
A:-------------------------------------------------------------------------|
E:-------------------------------------------------------------------------|
B:0-3-0-5-3--0-3-0-5-3-0--0-3-0-5-3--0-3-0-5-3-0----0-3-0-5-3--0-3-0-5-3-0-|

G:-------------------------------------------------------------------------|
D:-------------------------------------------------------------------------|
A:-------------------------------------------------------------------------|
E:-------------------------------------------------------------------------|
B:0-3-0-5-3----0-3-0--0-3-0------------------------------------------------|


Verse: (play twice)
G:-------------------------------------------------------------------------|
D:-------------------------------------------------------------------------|
A:-------------------------------------------------------------------------|
E:-------------------------------------------------------------------------|
B:0-3-0-5-3--0-3-0-5-3-0--0-3-0-5-3--0-3-0-5-3-0----0-3-0-5-3--0-3-0-5-3-0-|

G:-------------------------------------------------------------------------|
D:-------------------------------------------------------------------------|
A:-------------------------------------------------------------------------|
E:-------------------------------------------------------------------------|
B:0-3-0-5-3----0-3-0--0-3-0------------------------------------------------|

Chorus:
G:---------------------------------------------------------------------------|
D:---------------------------------------------------------------------------|
A:0-4-0-5-4--0-4-5-0-4-0--0-4-0-5-4--0-4-0-5-4-0-----------------------------|
E:---------------------------------------------------------------------------|
B:------------------------------------------------0-3-0-5-3--0-3-0-5-3-0-----|

G:-------------------------------------------------------------------------|
D:-------------------------------------------------------------------------|
A:-------------------------------------------------------------------------|
E:-------------------------------------------------------------------------|
B:0-3-0-5-3----0-3-0--0-3-0------------------------------------------------|

Verse: (play 1 time)
G:-------------------------------------------------------------------------|
D:-------------------------------------------------------------------------|
A:-------------------------------------------------------------------------|
E:-------------------------------------------------------------------------|
B:0-3-0-5-3--0-3-0-5-3-0--0-3-0-5-3--0-3-0-5-3-0----0-3-0-5-3--0-3-0-5-3-0-|

G:-------------------------------------------------------------------------|
D:-------------------------------------------------------------------------|
A:-------------------------------------------------------------------------|
E:-------------------------------------------------------------------------|
B:0-3-0-5-3----0-3-0--0-3-0------------------------------------------------|

Bridge:
G:----------------------------------------------------------------|
D:----------------------------------------------------------------|
A:---------------------------------7------7------7----------------|  x3
E:-----------------------------0-0----0-0----0-0------------------|
B:8-8-8-8-8-8-7-7-7-6-6-6-6---------------------------------------|

G:----------------------------------------------------|
D:----------------------------------------------------|
A:----------------------------------------------------|
E:----------------------------------------------------|
B:8-8-8-8-8-8-7-7-7-6-6-6-6-0-0--0-0-0--0-0-----------|


Verse: (play 1 time)
G:-------------------------------------------------------------------------|
D:-------------------------------------------------------------------------|
A:-------------------------------------------------------------------------|
E:-------------------------------------------------------------------------|
B:0-3-0-5-3--0-3-0-5-3-0--0-3-0-5-3--0-3-0-5-3-0----0-3-0-5-3--0-3-0-5-3-0-|

G:-------------------------------------------------------------------------|
D:-------------------------------------------------------------------------|
A:-------------------------------------------------------------------------|
E:-------------------------------------------------------------------------|
B:0-3-0-5-3----0-3-0--0-3-0------------------------------------------------|

Chorus:
G:---------------------------------------------------------------------------|
D:---------------------------------------------------------------------------|
A:0-4-0-5-4--0-4-0-5-4-0--0-4-0-5-4--0-4-0-5-4-0-----------------------------|
E:---------------------------------------------------------------------------|
B:------------------------------------------------0-3-0-5-3--0-3-0-5-3-0-----|

G:-------------------------------------------------------------------------|
D:-------------------------------------------------------------------------|
A:-------------------------------------------------------------------------|
E:-------------------------------------------------------------------------|
B:0-3-0-5-3----0-3-0--0-3-0------------------------------------------------|


Bridge:
G:----------------------------------------------------------------|
D:----------------------------------------------------------------|
A:---------------------------------7------7------7----------------|  x3
E:-----------------------------0-0----0-0----0-0------------------|
B:8-8-8-8-8-8-7-7-7-6-6-6-6---------------------------------------|

G:----------------------------------------------------|
D:----------------------------------------------------|
A:----------------------------------------------------|
E:----------------------------------------------------|
B:8-8-8-8-8-8-7-7-7-6-6-6-6-0-0--0-0-0----------------|
            
Submit corrections



        Solar Flare lessons Hard to play? Try these video lessons and learn fast Solar Flare lessons
        
↑ Back to top | Tablatures and chords for acoustic guitar and electric guitar, ukulele, drums are parodies/interpretations of the original songs. You may use it for private study, scholarship, research or language learning purposes only