» »

/0-9/311-tabs-28.html

»

311 - Salsa Bass

Artists:  A B C D E F G H I J K L M N O P Q R S T U V W X Y Z # 

Salsa Bass

(ver. 2) Click to play this song!
311
 Rating:
4/5 (4 votes)


 Salsa lessons Tabs too difficult? Try these video lessons and learn fast
 
                Bassist: P-Nut
Tuning: B-E-A-D-G


Nick Verse:
G|---------------------------------|
D|---------------------------------|
A|---------------------------------|
E|--0--2-0-2--0-3-3-3-3-4-4-4-4/7--|
B|---------------------------------| (x4)


G|-----------------------------------------------------|
D|-----------------------------------------------------|
A|----------6-6-6--------------------------------------|
E|--4-4-4-----------4-4-4--0-1-2-2----0-1-2-2---0-1-2--|
B|-----------------------------------------------------| (x2)


G|---------------------------------|
D|---------------------------------|
A|---------------------------------|
E|--0--2-0-2--0-3-3-3-3-4-4-4-4/7--|
B|---------------------------------| (x4)


SA Verse:
G|-----------------------------------------------------|
D|-----------------------------------------------------|
A|----------6-6-6--------------------------------------|
E|--4-4-4-----------4-4-4--0-1-2-2----0-1-2-2---0-1-2--|
B|-----------------------------------------------------| (x2)


G|-----------------------------|
D|----8------------------------|
A|--8---8-6--------------------|
E|----------9-9---8-9-8-7-6-6--|
B|-----------------------------| (x3)

G|-------------------------------|
D|----8--------------------------|
A|--8---8-6-------------------7--|
E|----------9-9---8-9-8-7-6-6----|
B|-------------------------------|

G|---------------------------|
D|---------------------------|
A|--4---2-2-2h4-4---4-4-4p2--|
E|----4-----------4----------|
B|---------------------------|

G|---------------------------|
D|--------------------6-6\4--|
A|--4---2-2-2h4-4---4-4-4\2--|
E|----4-----------4----------|
B|---------------------------| (x6)

G|---------------------------|
D|---------------------------|
A|--4---2-2-2h4-4---4-4-4p2--|
E|----4-----------4----------|
B|---------------------------|


G|---------------------------------|
D|---------------------------------|
A|---------------------------------|
E|--0--2-0-2--0-3-3-3-3-4-4-4-4/7--|
B|---------------------------------| (x4)

G|-----------------------------------------------------|
D|-----------------------------------------------------|
A|----------6-6-6--------------------------------------|
E|--4-4-4-----------4-4-4------------------------------|
B|-------------------------5-6-7-7----5-6-7-7---5-6-7--| (x2)

G|-----------------------------|
D|----8------------------------|
A|--8---8-6--------------------|
E|----------9-9---8-9-8-7-6-6--|
B|-----------------------------| (x3)

G|-------------------------------|
D|----8--------------------------|
A|--8---8-6-------------------7--|
E|----------9-9---8-9-8-7-6-6----|
B|-------------------------------|

G|---------------------------|
D|---------------------------|
A|--4---2-2-2h4-4---4-4-4p2--|
E|----4-----------4----------|
B|---------------------------| (x4)

G|--------------------------18-18-18\16--|
D|--------------------------16-16-16\14--|
A|--16----14-14-14h16-16-----------------|
E|-----16----------------16--------------|
B|---------------------------------------| (x2)

G|---------------------------|
D|---------------------------|
A|--4---2-2-2h4-4---4-4-4\2--|
E|----4-----------4----------|
B|---------------------------| (x2)

  You'll probably just want to make this up but end on a D
G|---------------------------------------------|
D|---------------------------------------------|
A|---------------------------------------------|
E|---------------------------------------------|
B|--/15-15\10\2-2///22\\/\/15/17/21\20\17\15~--|
            
Submit corrections



        Salsa lessons Hard to play? Try these video lessons and learn fast Salsa lessons
        
↑ Back to top | Tablatures and chords for acoustic guitar and electric guitar, ukulele, drums are parodies/interpretations of the original songs. You may use it for private study, scholarship, research or language learning purposes only