» »

/0-9/311-tabs-28.html

»

311 - India Ink Bass

Artists:  A B C D E F G H I J K L M N O P Q R S T U V W X Y Z # 

India Ink Bass

(ver. 2) Click to play this song!
311
 Rating:
4/5 (4 votes)


 India Ink lessons Tabs too difficult? Try these video lessons and learn fast
 
                This is how i play it for my band at least...sounds pretty close

+++Intro

G|---------------------------------|
D----------------------------------|
A----------------------------------|
D|-------3h5-5-5-5-5-5-5-5---------| x3

G|---------------------------|
D----------------------------|
A----------------------------|
D|-------3h5-5-5-5-5---------|

+++Verse -x2++++
G|--------------------------|
D---------------------------|
A---------------------------|
D|-----3h5---3-3h5----------| x4

BRIDGEin my band I ride the 8
e|---------------------------------------|
B|---------------------------------------|
G|---------------------------------------|
D-----------------------------------|----|
A----------------------------------------|
D|--x-x-8-x-8-8-8-x-x-8-x-x-8-x-8-x------| x2

+++Chorus repeat how ever many times as you should
G|---------------------------------------------|
D|---------------------------------------------|
A----------------------------------------------|
D|--1-1-1-1---3-3-3-3---10-10-10-10-10-10-10-10|

+++Chorus End++++++++++++++++++++++++++++++++++++++++++

G|--------------------|
D|--------------------|
A|--------------------|
D|-10-10-10-10-10-----|

Verse - x2
Chorus
+++Bridge - is chorus
+++"Breakdown"

G|-------------------------------|
D|-------------------------------|
A|-------------------------------|
D|---17-/-5----------------------|

G|------------------------------------------------|
D|------------------------------------------------|
A|---------------------------6-6------------------|
D|----5-5----10-10----8-8-----------3h5---5-5-5---|
            
Submit corrections



        India Ink lessons Hard to play? Try these video lessons and learn fast India Ink lessons
        
↑ Back to top | Tablatures and chords for acoustic guitar and electric guitar, ukulele, drums are parodies/interpretations of the original songs. You may use it for private study, scholarship, research or language learning purposes only