» »

/0-9/311-tabs-28.html

»

311 - Daisy Cutter Bass

Artists:  A B C D E F G H I J K L M N O P Q R S T U V W X Y Z # 

Daisy Cutter Bass

(ver. 1) Click to play this song!
311
 Rating:
4/5 (4 votes)


 Daisy Cutter lessons Tabs too difficult? Try these video lessons and learn fast
 
                311 - 'Daisy Cutter'
Standard 5-string bass tuning


  (0:20-0:38) Verse 1 Part :
G|------------------------|---------------------|
D|------------------------|---------------------|
A|------------------------|---------------------|
E|-5-5--------------------|-1-1---1---1---1---1-|
B|-----------1-1----------|---------------------|


   Prechorus (First time at 0:39)
G|------------------------|
D|------------------------|
A|------------------------|
E|-6-6-6-6-6\---1---1-1---|  <- last time play F 2x
B|------------------------|




Prechorus Pt 2: Play Verse 1 Part for 3 bars but change ending to-

(0:56)
G|-------------------------|
D|-------------------------|
A|-------------------7--7--|
E|-------------6--6--------|
B|-5--5--8--8--------------|





Chorus

   play 3x                  4th bar
G|------------------------|------------------------|
D|------------------------|------------------------|
A|------------------------|------------------------|
E|-1--1--1--1--8---x-8----|-1--1--1--1--8---x-0----|
B|------------------------|------------------------|

   play 4x                  9th bar
G|------------------------|------------------------|
D|------------------------|------------------------|
A|------------------------|------------------------|
E|-1--1--1--1--8---x-8----|-1_________-------------|
B|------------------------|------------------------|




Verse 2 Riff
G|------------------------|------------------------|
D|------------------------|------------------------|
A|-----------------7\-----|-------------8--5-------|
E|-5-5-5-5-5--------------|-1-1-1-1-1---------8--5-|
B|-------------1----------|------------------------|

G|------------------------|-------------------------|
D|------------------------|-------------------------|
A|-------------3---7\-----|----------------3-3h5--3-|
E|-5-5-5-5-5--------------|-1-1-1-1-1---5-----------|
B|------------------------|-------------------------|

G|------------------------|------------------------|
D|------------------------|------------------------|
A|-------------3---7\-----|-------------8--5-------|
E|-5-5-5-5-5--------------|-1-1-1-1-1---------8--5-|
B|------------------------|------------------------|

G|------------------------|--------------------------|
D|------------------------|--------------------------|
A|-------------3---7\-----|-------------0-3----0-3---|
E|-5-5-5-5-5--------------|-1-1-1-1-1-------1------1-|
B|------------------------|--------------------------|


Play Prechorus Again


Play first 3 bars of Verse 2 Riff Again, then 
Play Prechorus Pt 2 again


Play Chorus



Bridge
G|------------------------|-------------------------|
D|------------------------|-------------------------|
A|------------------------|-------------------------|
E|-5--5--5--5--5--5--5---4|-(4)-4--4--4--4--4--4--4-|
B|------------------------|-------------------------|

G|------------------------|-----------------------|
D|------------------------|-----------------------|
A|------------------------|-----------------------|
E|------------------------|-6--6--6--6--6----5----|
B|-4--4--4--4--4--4--4--4-|-----------------------|

G|------------------------|-------------------------|
D|------------------------|-------------------------|
A|------------------------|-------------------------|
E|-4--4--4--4--4--4--4--4-|-------------------------|
B|------------------------|-4--4--4--4--4--4--4--4--|

G|------------------------|---------------------|
D|------------------------|-8----7----5---------|
A|------------------------|----------------7----|
E|-6--6--6--6--6--6--6----|---------------------|
B|------------------------|---------------------|



Play Chorus Again during Guitar solo



'Just Clap Your Hands' Part
G|----------------------|
D|----------------------|
A|----------------------|
E|-1-1-1-1-1------------| play this 4x
B|----------------------|


Play Chorus Again, repeat until end


KEY:

\ or /   slide
____     hold note out 
            
Submit corrections



        Daisy Cutter lessons Hard to play? Try these video lessons and learn fast Daisy Cutter lessons
        
↑ Back to top | Tablatures and chords for acoustic guitar and electric guitar, ukulele, drums are parodies/interpretations of the original songs. You may use it for private study, scholarship, research or language learning purposes only