» » »

30 Seconds To Mars - The Kill Tabs

Artists:  A B C D E F G H I J K L M N O P Q R S T U V W X Y Z # 

The Kill Tabs

(ver. 1) Click to play this song!
30 Seconds To Mars
 Rating:
4/5 (4 votes)


 The Kill lessons Tabs too difficult? Try these video lessons and learn fast
 
                30 Second To Mars – The Kill (Acoustic)

Ok, it’s 75% finished I think that's more than enough to play around with. Just do some 
strumming and hard when it’s called for. I saw him play this on a video so I know these 
and chorus are 100% correct but the bridge?...I have no idea. Make the best of what's free, eh. Enjoy!

   C                       D                             E
e|--------------------------------------------------------------------|
B|----0--------------------0-----------------------------0------------|
G|-5--5--------------------7-----------------------------9------------|
D|-5--5--------------------7-----------------------------9------------|
A|-3--3--------------------5-----------------------------7------------|
E|-0------------------------------------------------------------------|
       What if I wanted to break     Laugh it all off in your face

                B
e|------------------------|
B|--------------0---------|
G|--------------4---------|
D|--------------4---------|
A|--------------2---------|
E|------------------------|
  What would you do?

e|--------------------------------------------------------------------|
B|-0-----------------------0-----------------------------0------------|
G|-5-----------------------7-----------------------------9------------|
D|-5-----------------------7-----------------------------9------------|
A|-3-----------------------5-----------------------------7------------|
E|--------------------------------------------------------------------|
      What if I fell to the floor   Couldn’t take this any…more

e|------------------------|
B|--------------0---------|
G|--------------4---------|
D|--------------4---------|
A|--------------2---------|
E|------------------------|
  What would you do?

e|--------------------------------------------------------------------|
B|-0-----------------------0-----------------------------0------------|
G|-5-----------------------7-----------------------------9------------|
D|-5-----------------------7-----------------------------9------------|
A|-3-----------------------5-----------------------------7------------|
E|--------------------------------------------------------------------|
   Come     Break     me   down      Bury me, Bury me    I am finished

e|------------------------|
B|--------------0---------|
G|--------------4---------|
D|--------------4---------|
A|--------------2---------|
E|------------------------|
           With you

e|--------------------------------------------------------------------|
B|-0-----------------------0-----------------------------0------------|
G|-5-----------------------7-----------------------------9------------|
D|-5-----------------------7-----------------------------9------------|
A|-3-----------------------5-----------------------------7------------|
E|--------------------------------------------------------------------|
       What if I wanted to fight   Beg for the rest of my life

e|------------------------|
B|--------------0---------|
G|--------------4---------|
D|--------------4---------|
A|--------------2---------|
E|------------------------|
  What would you do?

e|--------------------------------------------------------------------|
B|-0---------------------------0------------------------------0-------|
G|-5---------------------------7------------------------------9-------|
D|-5---------------------------7------------------------------9-------|
A|-3---------------------------5------------------------------7-------|
E|--------------------------------------------------------------------|
        You say you wanted more     What are you waiting for  I'm not

e|------------------------|
B|--------------0---------|
G|--------------4---------|
D|--------------4---------|
A|--------------2---------|
E|------------------------|
    running from you


e|--------------------------------------------------------------------|
B|-0-----------------------0-----------------------------0------------|
G|-5-----------------------7-----------------------------9------------|
D|-5-----------------------7-----------------------------9------------|
A|-3-----------------------5-----------------------------7------------|
E|--------------------------------------------------------------------|
   Come     Break     me   down      Bury me, Bury me    I am finished

e|------------------------|
B|--------------0---------|
G|--------------4---------|
D|--------------4---------|
A|--------------2---------|
E|------------------------|
           With you

e|--------------------------------------------------------------------|
B|-0---------------0-------------------------------------0------------|
G|-5---------------7-------------------------------------9------------|
D|-5---------------7-------------------------------------9------------|
A|-3---------------5-------------------------------------7------------|
E|--------------------------------------------------------------------|
   Look   in   my  eyes   You’re killing me, killing me  All I wanted

e|------------------------|
B|--------------0---------|
G|--------------4---------|
D|--------------4---------|
A|--------------2---------|
E|------------------------|
            was you

(The bridge part is different, anyone got any ideas?)

I tried to be someone else
But nothing seemed to change
I know now, this is who I really am inside
Finally found myself
Fighting for a chance
I know now, this is who I really am

Come break me down
Bury me, bury me
I am finished with you
Look in my eyes
You're killing me, killing me
All I wanted was you
            
Submit corrections



        The Kill lessons Hard to play? Try these video lessons and learn fast The Kill lessons
        
↑ Back to top | Tablatures and chords for acoustic guitar and electric guitar, ukulele, drums are parodies/interpretations of the original songs. You may use it for private study, scholarship, research or language learning purposes only