» » »

Rough Boy Tabs (ver.3)

Artists:  A B C D E F G H I J K L M N O P Q R S T U V W X Y Z # 

Rough Boy Tabs (ver.3)

Zz Top
Rating:
0/5 (0 votes)

Hard to play? Try these video lessons and learn fast.
                ~~~~~
---------------|-----------|
-----5---------|-----5-----|
-4/6---4-----2-|-4/6----/4-|
---------------|-----------|
---------------|-----------|

Keep repeating those two measures like on the recording (about 4X)
Then
	  ~~~~~~~~	       ~~~~~~~~	     ~~~~~~~~~         ~~~~~~
---------------------|-----------------|-----4--------|--------4-----|
---------------------|-----------------|--------------|--------------|
-6b-------4-------2--|-6b------4-------|-2------------|-2------------|
---------------------|-----------------|-2------------|-2------------|
---------------------|-----------------|--------------|--------------|

Then the first verse is sung

Then play those first two measures for "I'm a Rough boy , I 'm a rough boy"

Solo after verse 2 and before verse 3


    ~~~~~~~~~~~~~~~~~~~~~~				 ~~~~~~~~~~~~~
--------------------------9-------------|---------------------------------|
-12b14---------------------12-9---------|---------9----9--------------9-9-|
--------------------------------12-11-9-|---------------------------------|
----------------------------------------|11-11-11---11---11---------------|
----------------------------------------|---------------------------------|
----------------------------------------|---------------------------------|
            
Hard to play? Try these video lessons and learn fast. | Correct




comments powered by Disqus
↑ Back to top | Tablatures and chords are parodies/interpretations of the original songs. You may use it for private study, scholarship, research or language learning purposes only