» » »

Zz Top, La Grange Bass tabs (ver.4)

Artists:  A B C D E F G H I J K L M N O P Q R S T U V W X Y Z # 

La Grange Bass tabs (ver.4)

Zz Top Tabs
Rating:
0/5 (0 votes)
La Grange lessons Tabs too difficult? Try these video lessons and learn fast
                Standard Tuning

* repeat as needed
*
p pull off
h hammer on
/ slide up or down
~ vibrato

After gtr intro
G|-------------------------|
D|*-----------------------*|
A|*---------------3---5p3-*|
E|--5-5-5-5-5-5-5---5------|
   

2nd part
G|-------------------------|
D|*---------------1---3p1-*|
A|*-3-3-3-3-3-3-3---3-----*|
E|-------------------------|  

break
G|---------------|---------2--|
D|*4/5~-3/4~-2/3~|-----------*|
A|*--------------|---0-3h4---*|
E|---------------|------------|
   

this until it fades out
G|-----------------------|
D|*---------------------*|
A|*--3--3--3--3-5-------*|
E|--5--5--5--------------|
            

comments powered by Disqus
↑ Back to top | Zz Top Bass for La Grange. Lyrics for acoustic guitar and electric guitar. Tablatures and chords are parodies/interpretations of the original songs. You may use it for private study, scholarship, research or language learning purposes only