» » »

Just Got Paid Tabs (ver.4)

Artists:  A B C D E F G H I J K L M N O P Q R S T U V W X Y Z # 

Just Got Paid Tabs (ver.4)

Zz Top
Rating:
0/5 (0 votes)

Hard to play? Try these video lessons and learn fast.
                Song Title: Just Got Paid

H= Hammer On
P= Pull Off
/= Slide
(#)= Ghost Note (you don't here this note in the song)

{---------------INTRO--------------------------------------------------------|
E---------------------------------------}------------------------------------|
B---------------------------------------}------------------------------------|
G---------------------------------------}------------------------------------|
D---0H2----5-----2-----0-----2-------2--}---0-----2-----5-----2-----0-----2--|
A---------------------------------------}------------------------------------|
E-------0-----0-----0-----0-----3p0-----}-----(0)---(0)---(0)---(0)---(0)----|

E---------------------------------------------------------------------------|
B------------------------------------------------------/12------------------|
G---------------------------------------------------------------------------|
D--------2------0-----2-----5-----2-----0-----2-----------------------------|
A---------------------------------------------------------------------------|
E---3p0-----------(0)---(0)---(0)---(0)---(0)----3p0------------------------|


E---------------------------------------------------------------------------|
B---------------------------------------------------------------------------|
G-------------------------9----9----9----9----7----7-----------7----7-------|
D----Repeat Intro 6X------9----9----9----9----7----7-----------7----7-------|
A--------{----}-----------------------------------------8h9-----------------|
E---------------------------------------------------------------------------|

E---------------------------------------------------------------------------|
B---------------------------------------------------------------------------|
G-------------------------9----9----9----9----7----7-----------7----7-------|
D----Repeat Intro 2x------9----9----9----9----7----7-----------7----7-------|
A--------{----}-----------------------------------------8h9-----------------|
E---------------------------------------------------------------------------|

E---------------------------------------------------------------------------|
B-------------------------3--------------------2----------------------------|
G-------------------------0--------------------2----------------------------|
D----Repeat Intro 2x------0----(Let Ring)------2----(Let Ring)--------------|
A--------{----}-----------x--------------------0----------------------------|
E-------------------------3-------------------------------------------------|


Sorry But thats all i got for now
            
Hard to play? Try these video lessons and learn fast. | Correct




comments powered by Disqus
↑ Back to top | Tablatures and chords are parodies/interpretations of the original songs. You may use it for private study, scholarship, research or language learning purposes only