>
 >
Just Got Back From Babys

Just Got Back From Babys Guitar Tabs

Zz Top - Just Got Back From Babys chords, tabs, tablatures, lyrics

Guitar lessons | Add/correct | Request | Top 50 tabs Artists:  A B C D E F G H I J K L M N O P Q R S T U V W X Y Z 0-9

Just Got Back From Babys Guitar Tabs – Zz Top

CD, Sheet music, Poster

Do you like Just Got Back From Babys? Share with your friends now
Tabs




-------------------------------------------------------------------------

Standard tunning

Loads of distortion

Loads of reverb

Neck pickup

Root note is C



 "Douse that light"

e-------|---------------11b(13)r11--8------8--8~~~-----------------(8)-|
B-8--11-|/13-13~~--8-11----------------11----------10--------------(8)-|
G-------|------------------------------------------10---8-10--------x--|
D-------|----------------------------------------------------10--10----|
A-------|--------------------------------------------------------------|
E-------|--------------------------------------------------------------|
        
         

e|------------------------------------------------------------------------(8)-|
B|------------------------------------------------------------------------(8)-|
G|-----8-10-10b-10b-10b-10b(11)r10p8-10-8--8-10-*10b(11)r10p8-10-----------x--|
D|-/10-----------------------------------------------------------10-10--------|
A|----------------------------------------------------------------------------|
E|----------------------------------------------------------------------------|
                                                *Slight pinch harm.


e|------8--11b--11-8------8-8~~~-----11-13b-13p11-13---------11-13b-13b|
B|-8-11--------------11-11--------(13)---------------13---13-----------|
G|--------------------------------x------------------------------------|
D|---------------------------------------------------------------------|
A|---------------------------------------------------------------------|
E|---------------------------------------------------------------------|



e|-13-13-13~~p(11)----13b(14)r13p11-13-13------------11----------------|
B|---------------------------------------13-13~~~--11---13~~13~~13~~\--|
G|---------------------------------------------------------------------|
D|---------------------------------------------------------------------|
A|---------------------------------------------------------------------|
E|---------------------------------------------------------------------|


                  Now I just...
e|---------------------------------------------------------------------|
B|--(11)---------------------------------------------------------------|
G|--/12--10--8---8h(10)------------------------------------------------|
D|---------------8h-10---------------------------8-8h10~~~-------------|
A|--------------------------------------------10-----------------------|
E|---------------------------------------------------------------------|
                                          PM.|---|

  We been rollin'...
e|---------------------------------------------------------------------|
B|---------------------------------------------------------------------|
G|---------------------------------------------------------------------|
D|-----------------------------------8---------------------------------|
A|------------------------------/10-(10)-10\8p6-----x--------------6h8-|
E|-------------------------------------------------(8)-(6)h8~~~~-6-----|
                                                                 PM

  Now I just...
e|---------------------------------------------------------------------|
B|---------------------------------------------------------------------|
G|---------------------------------------------------------------------|
D|---------------------------------------------------------------------|
A|-/8~~~~~~~~~~~~~~~~~~~~~~~~~~~~~~~~~~~~~~~---------------------------|
E|---------------------------------------------------------------------|


  We been rollin'...
e|---------------------------------------------------------------------|
B|---------------------------------------------------------------------|
G|---------------------------------8-10b-10b-10b-10p8--10-----8--------|
D|--------------------------------x------------------10--10-10---------|
A|---------------------------------------------------------------------|
E|---------------------------------------------------------------------|


  She come on...         But I fell like...
e|---------------------------------------------------------------------|
B|---------------------------------------------------------------------|
G|-8-7~~~~~~-----------------------------------------------------------|
D|----------------8/10~~~-----------8----------------------------------|
A|-------------10---------------/10---(10)\8--6------------6-----6-----|
E|----------------------------------------------8p6h8--6h8---8-----8\--|


  Now sometime I go...          Sometime she comes...
e|---------------------------------------------------------------------|
B|--------------------------------------------8-11---------------------|
G|-------------------------------------8-10~~~-----10--8-(8)h10--------|
D|--/10~~~-----------8-8------------10-------------------------10~~~---|
A|----------------10-------8-------------------------------------------|
E|-------------------------X-------------------------------------------|


  I said, some time...      And sometime...
e|---------------------------------------------------------------------|
B|---------------------------------------------------------------------|
G|--8h10b(12)r10~~~~~~~~~------------------------------------------8b--|
D|---------------------------/10-8----8------------------------10------|
A|---------------------------------10--(10)p8-------------X--X---------|
E|--------------------------------------------11~~~p(8)-8-11-X---------|


     I got a funny...  I'm not the only...
e|---------------------------------------------------------------------|
B|---------------------------------------------------------------------|
G|-----------------------X--10b-10b-10b-10b(11)r10p8-10-8~~~-----------|
D|--------------/10~~~---10----------------------------------10-(8)h10-|
A|--10~~~----10--------------------------------------------------------|
E|-----------X---------------------------------------------------------|


  Solo:
e|------8-8----8~~8~~~8-11b----13b-13b-13b-13b-13b-13b(14)r13p11-13---------|
B|--11b-----11----------------x-------------------------------------13-13~~-|
G|--------------------------------------------------------------------------|
D|--------------------------------------------------------------------------|
A|--------------------------------------------------------------------------|
E|--------------------------------------------------------------------------|



e|--11h13-11b-------------------------------------------------------------------|
B|------------13-13~~p11\----11------------11-----------------------------------|
G|------------------------------10b(12)-12----10b(12)-12-10~~~p8-10b-10b(12)r10-|
D|------------------------------------------------------------------------------|
A|------------------------------------------------------------------------------|
E|------------------------------------------------------------------------------|



e|-----------------------------------------8~~~8~~8~~8~~8~~8~~8~~8~~8~~8~~(8)~~-|
B|-----8-10-10b(12)r10p8-------8b---11b(13)-------------------------------------|
G|--10-------------------10-10~-------------------------------------------------|
D|------------------------------------------------------------------------------|
A|------------------------------------------------------------------------------|
E|------------------------------------------------------------------------------|



e|---------13b--13b--13b--13-11-11~~--------------------------------------|
B|---13-11--------------------------13-13~~-------11----------------------|
G|--x-----------------------------------------/12----10-8-10--------------|
D|-----------------------------------------------------------10-10~~-8-10-|
A|------------------------------------------------------------------------|
E|------------------------------------------------------------------------|



e|---------------------------------------------------------------------|
B|---------------------------------------------------------------------|
G|---------------------------------------------------------------------|
D|--8-10----8---------------------------------8---------------------x--|
A|-------10---10-8-6~~(6)\---x-------6h8-8/10---10b-8b-------6-8-6-(8)-|
E|--------------------------(6)-6h8~-------------------8~8~~-----------|



e|---------------------------------------------------------------------|
B|---------------------------------------11----------------------------|
G|------------8------(8)-10b-10b-10b-10b----10b(12)-10-8----8----------|
D|------8--10---10~~-x-----------------------------------10~-----------|
A|--/10----------------------------------------------------------------|
E|---------------------------------------------------------------------|



e|-------------------------15-14-13-11b--13-15-11b--11b--------------11b-|
B|---11-13-13~~~~~~~~~~-13------------------------------13p11h13-13~~x---|
G|--x--------------------------------------------------------------------|
D|-----------------------------------------------------------------------|
A|-----------------------------------------------------------------------|
E|-----------------------------------------------------------------------|



e|--13b(15)-13-11-13------11-13b-13b-13b-13p(11)-13p11b----------------|
B|------------------13-13~~--------------------------------13~13~13~~~-|
G|---------------------------------------------------------------------|
D|---------------------------------------------------------------------|
A|---------------------------------------------------------------------|
E|---------------------------------------------------------------------|



e|-------------------------------------------10/11----(10)-10-----|
B|-------11~----------------------------(10)-10/11----(10)-10-----|
G|--10/12~---10--8~~----------------------------------------------|
D|--------------------10~~~-(8)h10~~~~~---------------------------|
A|----------------------------------------------------------------|
E|----------------------------------------------------------------|


  Now I just back...
e|----------------------------------------------------------------|
B|----------------------------------------------------------------|
G|----------------------------------------------------------------|
D|------------------------------------------------/10--8--10~~----|
A|------------------------------------------------/10-------------|
E|----------------------------------------------------------------|


  A big white house...
e|----------------------------------------------------------------|
B|----------------------------------------------------------------|
G|----------------------------------------------------------------|
D|----------------------------------------------------------------|
A|-----------------------------8--6-----6-(6)h8~~~~~~~~~~~~~~~~~~~|
E|--------3-6-8~~3-6-3-6-8----------8-----------------------------|


  I said, I just got back...
e|----------------------------------------------------------------|
B|----------------------------------------------------------------|
G|----------------------------------------------------------------|
D|----------------------------------------------------------------|
A|~~~~~~~~~~~~~~~~~~~~~~~~~~~~~~~~~~~~~------x--------------------|
E|-------------------------------------------x--------------------|


  A big white house...
e|-----------------------------------------------------------------|
B|-----------------------------------------------------------------|
G|-----------------------------------------------------------------|
D|-----------------------10-8----8---------------------------------|
A|----------------------------10---10\8p6-8-6b---------------------|
E|----------------------------------------------8~(6)h8~~~~--(8)p6-|


              If her lovin'... 
e|-----------------------------------------------------------------|
B|-----------------------------------------------------------------|
G|-----------------------------------------------------------------|
D|-----------------------------------------------------------------|
A|-----------------------------------------------------------------|
E|-(6)p\3~~~----------------------------6--6/8~~~~-----------------|


  I know her husband...
e|-----------------------------------------------------------------|
B|----------------------------------------------10b--------11b-----|
G|----------------------------------------------10b----------------|
D|--------------------------------------8/10~~---------------------|
A|--------------------------------/10~~----------------------------|
E|-----------------------------------------------------------------|



e|--8~~---------------------------------------------------------------------|
B|--------------------------------------------------------------------------|
G|------10p8-10----8~----------------------------------------------------8b-|
D|--------------10---10-8------8-------------------------------8h10-8h10----|
A|------------------------8/10--\8p6--------------6h8-6h8-8/10--------------|
E|--------------------------------------3-6-8-6h8---------------------------|



e|---------------------------------------11b----------------------------------|
B|------------------------10----11~~~-13-----13--13~~~-13---------11b-13------|
G|--8b--------------------10------------------------------12~~~12--------12~~-|
D|-----10--8--10-10-10~~------------------------------------------------------|
A|----------------------------------------------------------------------------|
E|----------------------------------------------------------------------------|



e|--------------------------------------------------------------------------|
B|-----11-------11-8--------------------------------------------------------|
G|--12----10-12------10-12-8----8-------------------------------------------|
D|---------------------------10-------8-10----------8-----------------------|
A|--------------------------------/10----------8/10---10p8h10-10-8h10p8\6---|
E|------------------------------------------------------------------------8-|



e|-----------------------------------11~~-13--15-11b-11-------------------|
B|--------------------------11-10-11--------------------*13~~~~~~~~~~~~~--|
G|--------10b--10~~8-10-8b/---------------------------------(x)(x)(x)(x)--|
D|--10--8-----------------------------------------------------------------|
A|------------------------------------------------------------------------|
E|------------------------------------------------------------------------|
                                                        *Hit muted G string
                                                        *Pinch harm.

e|----------------------------------------------------------------------------|
B|----------------(11)b13r11-8------------------------------------------------|
G|--(12)r10p8------------------11-10-8----------------------------------------|
D|-------------------------------------10-8----8------------------------------|
A|------------------------------------------10---10-8-6---6-------------------|
E|------------------------------------------------------8---8-6---3--6-8~~~~--|



This is the best blues song ever, hands down.  





Comments


Popular Zz Top tabs & chords
Asleep In The Desert Bass Tabs
Full For Stockins Bass Tabs
Sharp Dressed Man 2 Bass Tabs
Tush 2 Bass Tabs
Gimme All Your Lovin' Chords
Arrested For Driving While Blind Intro Tabs
Doubleback Intro Tabs
Master Of Sparks Tabs
Sunglasees Tabs
Pearl Necklace Ukulele


Song lyrics



↑ Back to top | Tablatures and chords are parodies/interpretations of the original songs. You may use it for private study, scholarship, research or language learning purposes only
© 2014 AZChords.com Contact us | Privacy policy | DMCA | Add/correct tabs | Request tabs | Top 50 tabs