>
 >
Im Bad Im Mationwide

Im Bad Im Mationwide Bass Tabs

Zz Top - Im Bad Im Mationwide chords, tabs, tablatures, lyrics

Guitar lessons | Add/correct | Request | Top 50 tabs Artists:  A B C D E F G H I J K L M N O P Q R S T U V W X Y Z 0-9

Im Bad Im Mationwide Bass Tabs – Zz Top

CD, Sheet music, Poster

Do you like Im Bad Im Mationwide? Share with your friends now
Bass TabsBass Tabs v2
ZZ Top - I'm Bad, I'm Nationwide 1979
Standard Tuning
note alot of repeating
and some rests

h is hammer
~ let note ring

intro
G|-----------------------------------------------------|
D|-----------------------------------------------------|
A|-3-3-3-3--3-3-3-3--0h1-0h1~-0h1--2-3-3-3-3--3-3-3----|
E|--------------------------------------------------3--|

G|-|r|----------5-3--|
D|-|e|----------3-1--|
A|-|s|---------------|
E|-|t|---------------|

:10, 2:35 play 4X's
G|---------------------|
D|----------------1-3--|
A|-3-3--3-3-3-1--------|
E|--------------3------|

verses  :20, :58, 2:45
G|---------------------------------------------------------|
D|----------------1-3----------------1-2-3-3--3-3-3--------|
A|-3-3--3-3-3-1-------3-3--3-3-3-1------------------0-1-2--|
E|--------------3------------------3-----------------------|

G|-----------------------------------------------------------|
D|----------------1-3----------------1-3----------------1-2--|
A|-3-3--3-3-3-1-------3-3--3-3-3-1-------3-3--3-3-3-1--------|
E|--------------3------------------3------------------3------|

G|--------------------------------------|
D|-3-3--3-3-3----------------------1-2--|
A|------------0-1-2-3-3--3-3-3-1--------|
E|-------------------------------3------|

chorus  :38, 1:16, 3:03
G|---------------------------------------------------------------------------|
D|-3-3-3-3-3-3-----3~-3-3-3-3-3-----------------------1------------------1-2-|
A|-------------0-1--------------0-1-2-3-3-3-3-3-3-1-----3~-3-3-3-3-3-1-------|
E|--------------------------------------------------3------------------3-----|

G|-----------------------------------------------|r|-----5-3--|
D|-3-3-3-3-3-3------------------------------1-3--|e|-----3-1--|
A|-------------0-1-3--------3-3-3-3-3-3-1--------|s|----------|
E|-------------------1~~------------------3------|t|----------|

guitar solo  1:36  play 3 times
G|----------------------|
D|-----------------1-3--|
A|-3-3--3--3-3-1--------|
E|---------------3------|

G|---------------------|
D|----3---3~-----------|
A|-3----------0--1--2--|
E|---------------------|

 play 3 X's
G|----------------------|
D|-----------------1-3--|
A|-3-3--3--3-3-1--------|
E|---------------3------|

G|---------------------|
D|----3---3~-----------|
A|-3----------0--1--2--|
E|---------------------|
  play 3X's
G|----------------------|
D|-----------------1-3--|
A|-3-3--3--3-3-1--------|
E|---------------3------|

G|---------------------|
D|----3---3~-----------|
A|-3----------0--1--2--|
E|---------------------|

2:05  play 8X's
G|---------------------|
D|----------------1-3--|
A|-3-3--3-3-3-1--------|
E|--------------3------|

G|------------------------------------------------|
D|----------------1-3---3--3~---------------------|
A|-3-3--3-3-3-1-------3----------3-3-3-3-3-3-3-3--|
E|--------------3---------------------------------|

G|--------------------------------|r|-----5-3--|
D|--------------------------------|e|-----3-1--|
A|-0h1-0h1~-0h1-2-3-3--3-3-3-3----|s|----------|
E|-----------------------------3--|t|----------|

3:20
G|-|r|------5-3--|
D|-|e|------3-1--|
A|-|s|-----------|
E|-|t|-----------|

outro  3:20
G|----------------------------------|
D|----------------------------------|
A|-3-3-3-3-3-3-3-3-3-3-3-3-3-3-3-3--|
E|----------------------------------|

G|-----------------------------------------------------------------|
D|-----------------------------------------------------------------|
A|-3-3-3-3--3-3-3-3-3-3-3-3-3-3-3-3-3-3-3-3-3-3-3-3-3-3-3-3-3-3-3--|
E|-----------------------------------------------------------------|

G|----------------------------------|
D|----------------------------------|
A|-3-1---------------1--------------|
E|-----3-2-1-0-1-2-3---3-2-1-0-1-2--|

play 3X's
G|----------------------------------|
D|----------------------------------|
A|-3-3-3-3-3-3-3-3-3-3-3-3-3-3-3-3--|
E|----------------------------------|

G|----------------------------------|
D|----------------------------------|
A|-3-1---------------1--------------|
E|-----3-2-1-0-1-2-3---3-2-1-0-1-2--|

play 7X's
G|----------------------------------|
D|----------------------------------|
A|-3-3-3-3-3-3-3-3-3-3-3-3-3-3-3-3--|
E|----------------------------------|

G|----------------------------------|
D|----------------------------------|
A|-3-1---------------1--------------|
E|-----3-2-1-0-1-2-3---3-2-1-0-1-2--|

play 7X's
G|----------------------------------|
D|----------------------------------|
A|-3-3-3-3-3-3-3-3-3-3-3-3-3-3-3-3--|
E|----------------------------------|

G|----------------------------------|
D|----------------------------------|
A|-3-1---------------1--------------|
E|-----3-2-1-0-1-2-3---3-2-1-0-1-2--|

play 3X's
G|----------------------------------|
D|----------------------------------|
A|-3-3-3-3-3-3-3-3-3-3-3-3-3-3-3-3--|
E|----------------------------------|

G|----------------------------------|
D|----------------------------------|
A|-3-1---------------1--------------|
E|-----3-2-1-0-1-2-3---3-2-1-0-1-2--|

play 3X's
G|----------------------------------|
D|----------------------------------|
A|-3-3-3-3-3-3-3-3-3-3-3-3-3-3-3-3--|
E|----------------------------------|

G|----------------------------------|
D|----------------------------------|
A|-3-1---------------1--------------|
E|-----3-2-1-0-1-2-3---3-2-1-0-1-2--|

  play 3X's
G|----------------------------------|
D|----------------------------------|
A|-3-3-3-3-3-3-3-3-3-3-3-3-3-3-3-3--|
E|----------------------------------|

G|----------------------------------|
D|----------------------------------|  fade out
A|-3-1---------------1--------------|
E|-----3-2-1-0-1-2-3---3-2-1-0-1-2--|





Comments


Popular Zz Top tabs & chords
Cheap Sunglasses Bass Tabs
Concrete And Steel Bass Tabs
Jesus Just Left Chicago Bass Tabs
Tush 2 Bass Tabs
A Fool For Your Stockings Tabs
Dust My Broom Tabs
Gimme All Your Lovin 2 Tabs
Gimme All Your Lovin' Tabs
Sharp Dressed Man 3 Tabs
Velcro Fly 1 Tabs


Song lyrics



↑ Back to top | Tablatures and chords are parodies/interpretations of the original songs. You may use it for private study, scholarship, research or language learning purposes only
© 2014 AZChords.com Contact us | Privacy policy | DMCA | Add/correct tabs | Request tabs | Top 50 tabs