» » »

Zz Top, Hot, Blue, & Righteous Tabs (ver.1)

Artists:  A B C D E F G H I J K L M N O P Q R S T U V W X Y Z # 

Hot, Blue, & Righteous Tabs (ver.1)

Zz Top Tabs
 Rating:
4/5 (4 votes)
Hot, Blue, & Righteous lessons Tabs too difficult? Try these video lessons and learn fast
1
                			     Hot Blue & Righteous – ZZ Top

Tuning: Standard

Intro
e|------------------------------------------------------------------2-------|
B|------------------------------3-------------------2---------/3------------|
G|-----------1--------------4-----4------------2------2---------------------|
D|--------2-----2--------4-----------4-----2-------------2------------------|
A|-----2-----------2--2-----------------0-----------------------------------|
E|---0----------------------------------------------------------------------|

Verse: (0:13-1:06)

     Hot                   Blue             and righteous  	
e|--------------------------------------------------2h4--2-----------------|
B|-----------2------------------5----------------------------------2-------|
G|--------2-----2-----------6-----6--------------------------2h4-----------|
D|------2----------2-----6-----------6--------4-----------------------4----|
A|---0----------------4---------------------4------------------------------|
E|----------------------------------------2--------------------------------|

        An angel              called me            aside.
e|----------------------------------------------------------------------2--|
B|------------------------------------3-------------------2---------/3-----|
G|----------------1---------------4-----4-------------2-----2--------------|
D|--------------2----2--------4------------4------2------------2-----------|
A|--4/2-----2----------2--2-------------------0----------------------------|
E|--------0----------------------------------------------------------------|

     Hot                   Blue             and righteous  	
e|--------------------------------------------------2h4--2-----------------|
B|-----------2------------------5----------------------------------2-------|
G|--------2-----2-----------6-----6---------------------------2h4----------|
D|------2----------2-----6-----------6--------4------------------------4---|
A|---0----------------4---------------------4------------------------------|
E|----------------------------------------2--------------------------------|

     Said   stick by me    and I'll be     your guide
e|----------------------------------------------------------------------2--|
B|------------------------------------3-------------------2---------/3-----|
G|----------------1---------------4-----4-------------2-----2--------------|
D|--------------2----2--------4------------4------2------------2-----------|
A|--4/2-----2----------2--2-------------------0----------------------------|
E|--------0----------------------------------------------------------------|

Bridge: (1:07-2.02)
e|-------------------------------------------------------------------------|
B|-------------------------------------------------7------------------7----|
G|----------4------------------4--------------7------7-----------7-----7---|
D|--------5----5-----------5-----5--------7------------7-----7-----------7-|
A|-----5----------5-----5-----------5--5------------------5----------------|
E|--3-----------------3----------------------------------------------------|

e|------------------------------------------------------------------2------|
B|---------------------------------------------------2---------/3----------|
G|-----------1-------------------1--------------2------2-------------------|
D|--------2-----2------------2-----2--------2------------2-----------------|
A|-----2-----------2------2-----------2--0---------------------------------|
E|--0------------------0---------------------------------------------------|

e|-------------------------------------------------------------------------|
B|-------------------------------------------------7------------------7----|
G|----------4------------------4--------------7------7-----------7-----7---|
D|--------5----5-----------5-----5--------7------------7-----7-----------7-|
A|-----5----------5-----5-----------5--5------------------5----------------|
E|--3-----------------3----------------------------------------------------|

e|-------------------------------------------------------------------------|
B|-------------------------------------------------------------------------|
G|-----------1-------------------1------------------4------------------4---|
D|--------2-----2------------2-----2------------5-----5-----------5-----5--|
A|-----2-----------2------2-----------2------5-----------5-----5----------5|
E|--0------------------0-------------------3------------------3------------|

Solo (2:03-2:30)
            ~~~~~       ~~~~~                 ~~~~
e|-------------------------------------------------------------------------|
B|------------------------------------------10------12-b14-----------------|
G|------7/9------------6---------/11--11-----------------------------------|
D|---5--------------7------------------------------------------------------|
A|-------------------------------------------------------------------------|
E|-------------------------------------------------------------------------|
                   ~~~~                                   ~~~~~  
e|-------------------------------------------------------------------------|
B|--14r12p10--------------------------------------------10------10---------|
G|---------------11--------9--11b13-----9h11p9h11-----------11-------------|
D|-------------------------------------------------------------------------|
A|-------------------------------------------------------------------------|
E|-------------------------------------------------------------------------|

 
Verse: (2:31-2:58)

     Hot                   Blue             and righteous  	
e|--------------------------------------------------2h4--2-----------------|
B|-----------2------------------5------------------------------------2-----|
G|--------2-----2-----------6-----6---------------------------2h4----------|
D|------2----------2-----6-----------6--------4------------------------4---|
A|---0----------------4---------------------4------------------------------|
E|----------------------------------------2--------------------------------|

        An angel              called me            aside.
e|----------------------------------------------------------------------2--|
B|------------------------------------3-------------------2---------/3-----|
G|----------------1---------------4-----4-------------2-----2--------------|
D|--------------2----2--------4------------4------2------------2-----------|
A|--4/2-----2----------2--2-------------------0----------------------------|
E|--------0----------------------------------------------------------------|

Outro (2:59-3:17)
e|--------------------------------------------5-----4------3------2---0----|
B|-------------------------------3-----------------------------------------|
G|-----------1---------------4-----4-------/6-----4------3------2-----1----|
D|--------2-----2--------4------------4------------------------------------|
A|-----2-----------2--2----------------------------------------------------|
E|--0----------------------------------------------------------------------|


| /  slide up
| \  slide down
| h  hammer-on
| p  pull-off
| ~  vibrato
| +  harmonic
| x  Mute note
            
Submit corrections

comments powered by Disqus
↑ Back to top | Zz Top Tabs for Hot, Blue, & Righteous. Lyrics for acoustic guitar and electric guitar. 1 Tablatures and chords are parodies/interpretations of the original songs. You may use it for private study, scholarship, research or language learning purposes only