» » »

Heaven, Hell, Or Houston Tabs (ver.1)

Artists:  A B C D E F G H I J K L M N O P Q R S T U V W X Y Z # 

Heaven, Hell, Or Houston Tabs (ver.1)

Zz Top
Rating:
0/5 (0 votes)

Hard to play? Try these video lessons and learn fast.
                ZZ Top
Heaven Hell or Houston
El Loco

this is a cool song that I have never seen posted 
so i went to work on it  I don't have the solo yet
but i'm close.  If you have not heard the song you should, its also on
One Foot In the Blues


the guitar has either chorus or delay or both
[------------------------------------------------------------------------
[--------4-------------------2--------------------1--------------------
[------------5------------------3--------------------2--------------2--
[------5------------------3-------------------2------------------3-----
[--------------------------------------------------------------3---------
[-3--------------1-1-------------------0-0--------------1--------------

[----------------------------------------------------0--0
[--------4--------------------------------------1------0
[------------5----------------4--------------------------
[----5---------------------3------------2---------------
[-----------------------3---------------------------------
[-3---------------1-1-------------0---------------------

verse
[---------------------                        
[---------------------  repeat till       
[---------------------  "island of        
[-2----3-4-----3--2  shandaler"  
[---------------------                          
[-0----1-2-----1--0-                        

 [-------------------
 [-------------------
 [-2---3--4----3-2 
 [-------------------
 [-0---1--2----1-0
 [-------------------

chorus

[----3-------4-------0----3
[----4-------5-------1----4
[----5-------6-------2----5
[-----------------------------
[-----------------------------
[-3------4-------0------3---


that's all of the song with out the awsome solo
            
Hard to play? Try these video lessons and learn fast. | Correct




comments powered by Disqus
↑ Back to top | Tablatures and chords are parodies/interpretations of the original songs. You may use it for private study, scholarship, research or language learning purposes only