» » »

Zz Top, Goin' Down To Mexico Bass tabs (ver.1)

Artists:  A B C D E F G H I J K L M N O P Q R S T U V W X Y Z # 

Goin' Down To Mexico Bass tabs (ver.1)

Zz Top Tabs
 Rating:
4/5 (4 votes)
Goin' Down To Mexico lessons Tabs too difficult? Try these video lessons and learn fast
1
                

Tuning: standard EADG

Intro:
G|---------------------------------------------------------------------------|
D|-------------------------------------------------------------------3-5-----|
A|1-3--1-3--1-3---1-3--1-3--1-3---1-3--1-3--1-3---1-3--1-3--1-3----5---------|
E|---------------------------------------------------------------------------|

Verse 1:
G|--------------3------------------------3---------------------------------|
D|3-5--3-5--3-5----5-------3-5--3-5--3-5----5------------------------------|
A|-------------------3-5----------------------3-5--------------------------|x2
E|-------------------------------------------------------------------------|

Chorus:
G|---------------------------------------------------------------------------|
D|---------------------------------------------------------------------------|
A|3--3-3-3--3-3-3-5-3-6-5----3--3-3-3--3-3-3-5-3-6-5-------------------------|
E|------------------------6--------------------------6-----------------------|

G|--------------3------------------------3-----------------------------------|
D|3-5--3-5--3-5----5-------3-5--3-5--3-5----5--------------------------------|
A|-------------------3-5----------------------3-5----------------------------|
E|---------------------------------------------------------------------------|

G|---------------------------------------------------------------------------|
D|---------------------------------------------------------------------------|
A|5--5-5-5--5-5--5-5-5-6-5-5-------------------------------------------------|
E|----------------------------8--8-8--8-6--6--6------------------------------|

Bridge:
G|---------------------------------------------------------------------------|
D|-----------------------------------------------3-5-------------------------|
A|----------------------------1-3--1-3--1-3----5-----------------------------|
E|---------------------------------------------------------------------------|

Verse 2:
G|--------------3------------------------3---------------------------------|
D|3-5--3-5--3-5----5-------3-5--3-5--3-5----5------------------------------|
A|-------------------3-5----------------------3-5--------------------------|x2
E|-------------------------------------------------------------------------|

Chorus:
G|---------------------------------------------------------------------------|
D|---------------------------------------------------------------------------|
A|3--3-3-3--3-3-3-5-3-6-5----3--3-3-3--3-3-3-5-3-6-5-------------------------|
E|------------------------6--------------------------6-----------------------|

G|--------------3------------------------3-----------------------------------|
D|3-5--3-5--3-5----5-------3-5--3-5--3-5----5--------------------------------|
A|-------------------3-5----------------------3-5----------------------------|
E|---------------------------------------------------------------------------|

G|---------------------------------------------------------------------------|
D|---------------------------------------------------------------------------|
A|5--5-5-5--5-5--5-5-5-6-5-5-------------------------------------------------|
E|----------------------------8--8-8--8-6--6--6------------------------------|


Bridge:
G|---------------------------------------------------------------------------|
D|---------------------------------------------------------------------------|
A|1-3--1-3-------------------------------------------------------------------|
E|-------------6---5----------6----------------------------------------------|

Solo:
G|------------------------------------------------------------------------|
D|------------------------------------------------------------------------|
A|-------3-5----------3-5------------3-5----------3-5---------------------|x10
E|5--5-5------5--5--5-----3---5--5-5------5--5--5-----3-------------------|

G|---------------------------------------------------------------------------|
D|------------------------------------------------3--------------------------|
A|-------3-5----------3-5----5--5-5-5--5-5--5-5-5---5-5--3--3-3--3-1--1--1--1|
E|5--5-5------5--5--5-----3--------------------------------------------------|

Bridge:
G|--------5------------------------------------------------------------------|
D|----3-5---5-------3----3-5-------------------------------------------------|
A|3-5-----------3-5----5-----------------------------------------------------|
E|---------------------------------------------------------------------------|

Verse 1:
G|--------------3------------------------3---------------------------------|
D|3-5--3-5--3-5----5-------3-5--3-5--3-5----5------------------------------|
A|-------------------3-5----------------------3-5--------------------------|x2
E|-------------------------------------------------------------------------|

Chorus:
G|---------------------------------------------------------------------------|
D|---------------------------------------------------------------------------|
A|3--3-3-3--3-3-3-5-3-6-5----3--3-3-3--3-3-3-5-3-6-5-------------------------|
E|------------------------6--------------------------6-----------------------|

G|--------------3------------------------3-----------------------------------|
D|3-5--3-5--3-5----5-------3-5--3-5--3-5----5--------------------------------|
A|-------------------3-5----------------------3-5----------------------------|
E|---------------------------------------------------------------------------|

G|---------------------------------------------------------------------------|
D|---------------------------------------------------------------------------|
A|5--5-5-5--5-5--5-5-5-6-5-5-------------------------------------------------|
E|----------------------------8--8-8--8-6--6--6------------------------------|

Outro:
G|---------------------------------------------------------------------------|
D|---------------------------------------------------------------------------|
A|----------------------------1-3--1-3--1-3---1-3--1-3--1-3------------------|
E|--------------------------------------------------------------3------------|

Notes: 

If You have problems with this tab, write me a mail what's wrong with it
instead of giving it a bad rating! It'd better for everyone! Thx!


| /  slide up
| \  slide down
| h  hammer-on
| p  pull-off
| ~  vibrato
| +  harmonic
| x  Mute note
            
Submit corrections

comments powered by Disqus
↑ Back to top | Zz Top Bass for Goin' Down To Mexico. Lyrics for acoustic guitar and electric guitar. 1 Tablatures and chords are parodies/interpretations of the original songs. You may use it for private study, scholarship, research or language learning purposes only