» » »

Gimme All Your Lovin' Tabs (ver.4)

Artists:  A B C D E F G H I J K L M N O P Q R S T U V W X Y Z # 

Gimme All Your Lovin' Tabs (ver.4)

Zz Top
Rating:
0/5 (0 votes)

Hard to play? Try these video lessons and learn fast.
                "(3)
-------------------------------------------------------------------------------
                             GIMME ALL YOUR LOVIN' - ZZ TOP
-------------------------------------------------------------------------------


Tuning: Standard


Lead

     W                   W                   W                   W                 
E||-------------------|-------------------|-------------------|-------------------|
B||-------------------|-------------------|-------------------|-------------------|
G||-------------------|-------------------|-------------------|-------------------|
D||-------------------|-------------------|-------------------|-------------------|
A||-------------------|-------------------|-------------------|-------------------|
E||-------------------|-------------------|-------------------|-------------------|


                                                         |---3--|   |---3--|   
  W                   E   E    H.               H        E   E  E   E   E  E   
-------------------|-------------------------|-----------8-----------------8--|
-------------------|-----11b---L~------------|--L-----------11--8-------8-----|
-------------------|-------------------------|---------------------10b--------|
-------------------|-------------------------|--------------------------------|
-------------------|-------------------------|--------------------------------|
-------------------|-------------------------|--------------------------------|


                                  |---3--|   |---3--|                          
   W                     H        E   E  E   E   E  E      W                   
----------------------|-----------8-----------------8--|----------------------|
--11b~----------------|--L-----------11--8-------8-----|--11b~----------------|
----------------------|---------------------10b--------|----------------------|
----------------------|--------------------------------|----------------------|
----------------------|--------------------------------|----------------------|
----------------------|--------------------------------|----------------------|


           |---3--|   |---3--|                                     |---3--|   |---3--|   
  H        E   E  E   E   E  E      W                     H        E   E  E   E   E  E   
-----------8-----------------8--|----------------------|-----------8-----------------8--|
--L-----------11--8-------8-----|--11b~----------------|--L-----------11--8-------8-----|
---------------------10b--------|----------------------|---------------------10b--------|
--------------------------------|----------------------|--------------------------------|
--------------------------------|----------------------|--------------------------------|
--------------------------------|----------------------|--------------------------------|

Verse 1
             |--3-|                                                                         
   H         Q    E      Q        W                   W                   W                 
-------------------------------|-------------------|-------------------|-------------------|
-------------------------------|-------------------|-------------------|-------------------|
------------------x------------|-------------------|-------------------|-------------------|
--10~-------------x------------|-------------------|-------------------|-------------------|
-------------------------------|-------------------|-------------------|-------------------|
---------------------13g15\----|-------------------|-------------------|-------------------|


                                                                       |--3-|             
  W                   W                   W                   H        Q    E      Q      
-------------------|-------------------|-------------------|-----------------------------|
-------------------|-------------------|-------------------|-----------------------------|
-------------------|-------------------|---------------
"            
Hard to play? Try these video lessons and learn fast. | Correct




comments powered by Disqus
↑ Back to top | Tablatures and chords are parodies/interpretations of the original songs. You may use it for private study, scholarship, research or language learning purposes only