» » »

Zz Top, Gimme All Your Lovin' Tabs (ver.3)

Artists:  A B C D E F G H I J K L M N O P Q R S T U V W X Y Z # 

Gimme All Your Lovin' Tabs (ver.3)

Zz Top Tabs
Rating:
0/5 (0 votes)
Gimme All Your Lovin' lessons Tabs too difficult? Try these video lessons and learn fast
                "(2)
----------------------------------------------------------------------------
                             Gimme All Your Lovin' - ZZ Top
----------------------------------------------------------------------------


Tuning:  Standard

* I mute the single notes in-between power chords for effect ... this is a basic rythym 
I use ... I add-lib and change the number of strums as I go *

  Intro (0:00 - 0:26) Repeat 4x
e)|------------------------------------------------------|
B)|------------------------------------------------------|
G)|------------------------------------------------------|
D)|--3-5-5-5---5-------5-5---5---------------------------|
A)|------3-3-3-3-3-3-3-3-3-3-3---------------------------|
E)|------------------------------------------------------|

  Verse I (0:26 - 0:42) Repeat throughout
e)|------------------------------------------------------|
B)|------------------------------------------------------|
G)|------------------------------------------------------|
D)|-5-----5-------5-5---5--------------------------------|
A)|-3-3-3-3-3-3-3-3-3-3-3--------------------------------|
E)|------------------------------------------------------|

I've got to have a shot ... of what you got is oh so sweet
You got to make it hot ... like a boomerang I need a repeat

  Chorus (0:42 - 0:58)
e)|--------------------------------------------------------------------|
B)|--------------------------------------------------------------------|
G)|--------------------------------------------------------------------|
D)|-3-3-----3-3------------------------------5-5---5-------5-5---5-----|
A)|-1-1-1-1-1-1-1-1--3--3--------3--3--------3-3-3-3-3-3-3-3-3-3-3-3-3-|
E)|------------------1--1--1--1--1--1--1--1----------------------------|

Gimme all your lovin', all your hugs and kisses too
Gimme all your lovin', don't let up until we're through

  Verse II (0:58 - 1:14)
e)|------------------------------------------------------|
B)|------------------------------------------------------|
G)|------------------------------------------------------|
D)|-5-----5-------5-5---5--------------------------------|
A)|-3-3-3-3-3-3-3-3-3-3-3--------------------------------|
E)|------------------------------------------------------|

You got to whip it up ... and hit me like a ton of lead
If I blow my top ... will you let it go to your head

  Chorus (1:14 - 1:31)
e)|--------------------------------------------------------------------|
B)|--------------------------------------------------------------------|
G)|--------------------------------------------------------------------|
D)|-3-3-----3-3------------------------------5-5---5-------5-5---5-----|
A)|-1-1-1-1-1-1-1-1--3--3--------3--3--------3-3-3-3-3-3-3-3-3-3-3-3-3-|
E)|------------------1--1--1--1--1--1--1--1----------------------------|

Gimme all your lovin', all your hugs and kisses too
Gimme all your lovin', don't let up until we're through


  Bridge (1:31 - 2:23)
e)|-------------------------------------------------------------------|
B)|-------------------------------------------------------------------|
G)|-------------------------------------------------------------------|
D)|-3-3---3-3---3-3---3---3-3-3--5-5---5-------5-5---5----------------|
A)|-1-1-1-1-1-1-1-1-1-1-1-1-1-1--3-3-3-3-3-3-3-3-3-3-3--3-3-----3-3---|
E)|-----------------------------------------------------1-1-1-1-1-1---|

e)|-----------------------|
B)|-----------------------|
G)|-----------------------|
D)|-3-3-----3-3-----------|
A)|-1-1-1-1-1-1-1-1-------|
E)|-----------------------|

e)|-------------------------------------------------------------------|
B)|-------------------------------------------------------------------|
G)|-------------------------------------------------------------------|
D)|-5-5---5-------5-5---5------------------3-3-----3-3----------------|
A)|-3-3-3-3-3-3-3-3-3-3-3--3-3-----3-3-----1-1-1-1-1-1-1-1------------|
E)|------------------------1-1-1-1-1-1-1-1----------------------------|

e)|-----------------------|
B)|-----------------------|
G)|-----------------------|
D)|-5-5---5-------5-5---5-|
A)|-3-3-3-3-3-3-3-3-3-3-3-|
E)|-----------------------|

  (repeat 2x)
e)|-------------------------------------------------------------------|
B)|-------------------------------------------------------------------|
G)|-------------------------------------------------------------------|
D)|-3-3---3-3---3-3---3---3-3-3--5-5---5-------5-5---5----------------|
A)|-1-1-1-1-1-1-1-1-1-1-1-1-1-1--3-3-3-3-3-3-3-3-3-3-3----------------|
E)|-------------------------------------------------------------------|

  Verse III (2:23 - 2:39)
e)|-------------------------------------------------------------------|
B)|-------------------------------------------------------------------|
G)|-------------------------------------------------------------------|
D)|-5-----5-------5-5---5---------------------------------------------|
A)|-3-3-3-3-3-3-3-3-3-3-3---------------------------------------------|
E)|-------------------------------------------------------------------|

You got to move it up ... and use it like a school boy would
You got to pack it up ... work it like a new boy should

  Chorus (2:39 - 2:55)
e)|--------------------------------------------------------------------|
B)|--------------------------------------------------------------------|
G)|--------------------------------------------------------------------|
D)|-3-3-----3-3------------------------------5-5---5-------5-5---5-----|
A)|-1-1-1-1-1-1-1-1--3--3--------3--3--------3-3-3-3-3-3-3-3-3-3-3-3-3-|
E)|------------------1--1--1--1--1--1--1--1----------------------------|

Gimme all your lovin', all your hugs and kisses too
Gimme all your lovin', don't let up until we're through

  Bridge (2:55 - 4:01) *this portion is long … listen to the changes*

e)|---------------------------------------------------------------------|
B)|---------------------------------------------------------------------|
G)|---------------------------------------------------------------------|
D)|-3-3---3-3---3-3---3---3-3-3--5-5---5-------5-5---5------------------|
A)|-1-1-1-1-1-1-1-1-1-1-1-1-1-1--3-3-3-3-3-3-3-3-3-3-3--3-3-----3-3-----|
E)|-----------------------------------------------------1-1-1-1-1-1-1-1-|

e)|-----------------------|
B)|-----------------------|
G)|-----------------------|
D)|-5-5---5-------5-5---5-|
A)|-3-3-3-3-3-3-3-3-3-3-3-|
E)|-----------------------|


| /  slide up
| \  slide down
| h  hammer-on
| p  pull-off
| ~  vibrato
| +  harmonic
| x  Mute note
============================================================================
"            

comments powered by Disqus
↑ Back to top | Zz Top Tabs for Gimme All Your Lovin'. Lyrics for acoustic guitar and electric guitar. Tablatures and chords are parodies/interpretations of the original songs. You may use it for private study, scholarship, research or language learning purposes only