>
 >
Francine

Francine Guitar Tabs

Zz Top - Francine chords, tabs, tablatures, lyrics

Guitar lessons | Add/correct | Request | Top 50 tabs Artists:  A B C D E F G H I J K L M N O P Q R S T U V W X Y Z 0-9

Francine Guitar Tabs – Zz Top

CD, Sheet music, Poster

Do you like Francine? Share with your friends now
Tabs

As recorded by ZZ Top
(From the 1972 Album RIO GRANDE MUD)

	

Words and Music by B. Gibbons, K. Cordray & S. Perrone

Gtr I (E A D G B E) - 'Untitled'
Gtr II (E A D G B E) - 'Untitled'
Gtr III (E A D G B E) - 'Untitled'

 Intro
  Q=125
                 F#mGm   F/C     G#   Am F5/C B5C5/G
 4/4
  Gtrs II, III
                                                 ~~~~~~~
  W          Q    a  E E  Q.      E    E  E E a  E  +H
|----------|------------------------|-------------------------|
|----------|-----10s11---10---------|-------------------------|
|----------|-----11s12---10---------|----10-------------------|
|----------|-------------10------10-|-10-10---9s10-(10)-------|
|----------|---------------------11-|-12------9s10-(10)-------|
|----------|------------------------|-------------------------|
|
| Gtr I
|            PM      PM   PM   PM      PM   PM       PM   PM
| W          E E     E E  E  E E  E    E  E E    E   E  E E E
|----------|------------------------|-------------------------|
|----------|------------------------|-------------------------|
|----------|---5-------5-----5----5-|-----5------5------5---5-|
|----------|---5-------5-----5----5-|-----5------5------5---5-|
|----------|-3-------3----3----3----|--3----3--------3----3---|
|----------|------------------------|-------------------------|


        F#mGm   F/C     G#   Am F5/C B5C5/G
                                        ~~~~~~~
    Q    a  E E  Q.      E    E  E E a  E  +H           3x
||-------------------------|----------------------------||
||o-----10s11---10---------|---------------------------o||
||------11s12---10---------|----10----------------------||
||--------------10------10-|-10-10---9s10-(10)----------||
||o---------------------11-|-12------9s10-(10)---------o||
||-------------------------|----------------------------||
|
|   PM      PM   PM   PM      PM   PM       PM   PM
|   E E     E E  E  E E  E    E  E E    E   E  E S S E  3x
||-------------------------|----------------------------||
||o------------------------|---------------------------o||
||----5-------5-----5----5-|-----5------5------5-----3--||
||----5-------5-----5----5-|-----5------5------5-3h5----||
||o-3-------3----3----3----|--3----3--------3----------o||
||-------------------------|----------------------------||


   Verse
    $
      C5/G
      Gtr III
                                PM                                    PM
    W                 H       E E S S E   W                 H       E E S S E
||------------------|-------------------|-----------------|--------------------|
||o-----------------|-------------------|-----------------|--------------------|
||------------------|-----------------3-|-----------------|-----------------3--|
||------------------|-------------3h5---|-----------------|-------------3h5----|
||o-----------------|-----------3-------|-----------------|-----------3--------|
||------------------|-------------------|-----------------|--------------------|
|
|   Gtr II
|   PM  PM  PM  PM    PM  PM  PM          PM  PM  PM  PM    PM  PM  PM
|   E E E E E E E E   E E E E E E E   E   E E E E E E E E   E E E E E E E   E
||------------------|-------------------|-----------------|--------------------|
||o-----------------|-------------------|-----------------|--------------------|
||------------------|-------------------|-----------------|--------------------|
||------------------|-------------1---2-|-----------------|-----------------0--|
||o-3-3-3-3-3-3-3-3-|-3-3-3-3-3-3-------|-3-3-3-3-3-3-3-3-|-3-3-3-3-3-3-3------|
||------------------|-------------------|-----------------|--------------------|
|
|   Gtr I
|   PM  PM  PM  PM    PM  PM  PM  PM      PM  PM  PM  PM    PM  PM  PM
|   E E E E E E E E   E E E E E E S S E   E E E E E E E E   E E E E E E S S E
||------------------|-------------------|-----------------|--------------------|
||o-----------------|-------------------|-----------------|--------------------|
||----5---5---5---5-|---5---5---5-----3-|---5---5---5---5-|---5---5---5-----3--|
||----5---5---5---5-|---5---5---5-3h5---|---5---5---5---5-|---5---5---5-3h5----|
||o-3---3---3---3---|-3---3---3---------|-3---3---3---3---|-3---3---3----------|
||------------------|-------------------|-----------------|--------------------|


                             To Coda
  G5                                    C5F/A   Em/GC5/GF/A       Em/GAmC5/G
  Gtrs II, III
  E E E E +H       +E  E E E +H       Q   E E E E E E   E E E +E  E E E E
|----------------|------------------|-----------------|-------------------|
|----------------|------------------|-----6---6p5-----|-6---6-(6)p5-------|
|-------0-(0)----|-(0)-----0-(0)----|-----5---5-----5-|-5---5-(5)-----5-5-|
|-----0----------|-------0----------|-----7---7p5---5-|-7---7-(7)p5-5-7-5-|
|----------------|------------------|-----------------|-------------------|
|---3------------|-----3------------|-----------------|-------------------|
|
| Gtr I
|                                     PM  PM  PM  PM    PM  PM    PM  PM
| W                +W                 E E E E E E E E   E E E  E  E E E E
|----------------|------------------|-----------------|-------------------|
|----------------|------------------|-----------------|-------------------|
|----------------|------------------|---5---5---5---5-|---5----5----5---5-|
|-5--------------|-(5)--------------|---5---5---5---5-|---5----5----5---5-|
|-5--------------|-(5)--------------|-3---3---3---3---|-3---3-----3---3---|
|-3--------------|-(3)--------------|-----------------|-------------------|


 Chorus
  G5                                    C5F/A   Em/G    F/A   Em/G        F5/C
  Gtrs II, III
  E E E E +H       +E  E E E +H       Q   E E E E E E   E E E E +Q    S S E
|----------------|------------------|-----------------|----------------------|
|----------------|------------------|-----6---6p5-----|-6---6p5-(5)-------6--|
|-------0-(0)----|-(0)-----0-(0)----|-----5---5-----x-|-5---5-------------5--|
|-----0----------|-------0----------|-----7---7p5---x-|-7---7p5-(5)---5h7----|
|----------------|------------------|-----------------|----------------------|
|---3------------|-----3------------|-----------------|----------------------|
|
| Gtr I
|                                     PM  PM  PM  PM    PM  PM   PM
| W                +W                 E E E E E E E E   E E E E  E  E S S E
|----------------|------------------|-----------------|----------------------|
|----------------|------------------|-----------------|----------------------|
|----------------|------------------|---5---5---5---5-|---5---5-----5-----3--|
|-5--------------|-(5)--------------|---5---5---5---5-|---5---5-----5-3h5----|
|-5--------------|-(5)--------------|-3---3---3---3---|-3---3----3-----------|
|-3--------------|-(3)--------------|-----------------|----------------------|


 Bridge
  1.
    C5F#mGm   F/C     G#   Am F5/C B5C5/G
  Gtrs II, III
                                      ~~~~~~~
  Q    a  E E  Q.      E    E  E E a  E  +H
|------------------------|-------------------------|
|-----10s11---10---------|-------------------------|
|-----11s12---10---------|----10-------------------|
|-------------10------10-|-10-10---9s10-(10)-------|
|---------------------11-|-12------9s10-(10)-------|
|------------------------|-------------------------|
|
| Gtr I
| PM      PM   PM   PM      PM   PM       PM   PM
| E E     E E  E  E E  E    E  E E    E   E  E E E
|------------------------|-------------------------|
|------------------------|-------------------------|
|---5-------5-----5----5-|-----5------5------5---5-|
|---5-------5-----5----5-|-----5------5------5---5-|
|-3-------3----3----3----|--3----3--------3----3---|
|------------------------|-------------------------|


      F#mGm   F/C     G#   Am F5/C B5C5/G
                                      ~~~~~~~
  Q    a  E E  Q.      E    E  E E a  E  +H
|------------------------|-----------------------------||
|-----10s11---10---------|----------------------------o||
|-----11s12---10---------|----10-----------------------||
|-------------10------10-|-10-10---9s10-(10)-----------||
|---------------------11-|-12------9s10-(10)----------o||
|------------------------|-----------------------------||
|
| PM      PM   PM   PM      PM   PM       PM   PM
| E E     E E  E  E E  E    E  E E    E   E  E S S E
|------------------------|-----------------------------||
|------------------------|----------------------------o||
|---5-------5-----5----5-|-----5------5------5-----3---||
|---5-------5-----5----5-|-----5------5------5-3h5-----||
|-3-------3----3----3----|--3----3--------3-----------o||
|------------------------|-----------------------------||


  2.
  F5  F5/F/A         C5/G   F5/C    F/A    C/G
  Gtrs II, III
    Q    E  E E  E E  E   E  E Q    E  E E  E
|-----------------------|---------------------|
|--------6----6---------|----6------6----6--5-|
|--------5----5-------5-|----5------5----5--5-|
|--------7----7-------5h|=7---------7----7--5-|
|-----------------------|---------------------|
|-----------------------|---------------------|
|
| Gtr I
|   PM   PM   PM   PM     PM   PM   PM   PM
|   e  E E  E E  E E  E   E  E E  E E  E E  E
|-----------------------|---------------------|
|-----------------------|---------------------|
|-/10-10---10---10---10-|---10---10---10---10-|
|-/10-10---10---10---10-|---10---10---10---10-|
|---8----8----8----8----|-8----8----8----8----|
|-----------------------|---------------------|


    F5/F/A         C5/G  F5/CC5C5
  Q    E  E E  E E E   E E E E H
|--------------------|---------8--------|
|------6----6--------|---6p5---8--------|
|------5----5------5-|---5---5-5--------|
|------7----7------5h|=7----------------|
|--------------------|------------------|
|--------------------|------------------|
|
| PM   PM   PM   PM    PM  PM  PM  PM
| E  E E  E E  E E E   E E E E E E E E
|--------------------|------------------|
|--------------------|------------------|
|---10---10---10---5-|---5---5---5---5/-|
|---10---10---10---5-|---5---5---5---5/-|
|-8----8----8----8---|-3---3---3---3----|
|--------------------|------------------|


  F5     F/A         C5/G   F5/C    F/A           G5
    Q    E  E E  E E  E   E  E Q    E  E Q      E e Q  e E Q    E e Q  e E Q
|-----------------------|---------------------|---------------|---------------|
|--------6----6---------|----6------6---------|---8----8------|---8----8------|
|--------5----5-------5-|----5------5---------|---7----7------|---7----7------|
|--------7----7-------5h|=7---------7---------|---5----5------|---5----5------|
|-----------------------|---------------------|---------------|---------------|
|-----------------------|---------------------|---------------|---------------|
|
|   PM   PM   PM   PM     PM   PM   PM   PM       PM   PM         PM   PM
|   e  E E  E E  E E  E   E  E E  E E  E E  E   E e Q  E E Q    E E Q  H
|-----------------------|---------------------|---------------|---------------|
|-----------------------|---------------------|---------------|---------------|
|-/10-10---10---10---10-|---10---10---10---10-|---0----0------|---0----0------|
|-/10-10---10---10---10-|---10---10---10---10-|---0----0------|---0----0------|
|---8----8----8----8----|-8----8----8----8----|---x----x------|---x----x------|
|-----------------------|---------------------|---3----3------|---3----3------|


 Interlude
    C5F#mGm   F/C     G#   Am F5/C B5C5/G
  Gtrs II, III
                                      ~~~~~~~
  Q    a  E E  Q.      E    E  E E a  E  +H
|------------------------|-------------------------|
|-----10s11---10---------|-------------------------|
|-----11s12---10---------|----10-------------------|
|-------------10------10-|-10-10---9s10-(10)-------|
|---------------------11-|-12------9s10-(10)-------|
|------------------------|-------------------------|
|
| Gtr I
| PM      PM   PM   PM      PM   PM       PM   PM
| E E     E E  E  E E  E    E  E E    E   E  E E E
|------------------------|-------------------------|
|------------------------|-------------------------|
|---5-------5-----5----5-|-----5------5------5---5-|
|---5-------5-----5----5-|-----5------5------5---5-|
|-3-------3----3----3----|--3----3--------3----3---|
|------------------------|-------------------------|


      F#mGm   F/C     G#   Am F5/C B5C5/G
                                      ~~~~~~~
  Q    a  E E  Q.      E    E  E E a  E  +H
|------------------------|--------------------------|
|-----10s11---10---------|--------------------------|
|-----11s12---10---------|----10--------------------|
|-------------10------10-|-10-10---9s10-(10)--------|
|---------------------11-|-12------9s10-(10)--------|
|------------------------|--------------------------|
|
| PM      PM   PM   PM      PM   PM       PM   PM
| E E     E E  E  E E  E    E  E E    E   E  E E E
|------------------------|--------------------------|
|------------------------|-----------------------8--|
|---5-------5-----5----5-|-----5------5------5---5/-|
|---5-------5-----5----5-|-----5------5------5---5/-|
|-3-------3----3----3----|--3----3--------3----3----|
|------------------------|--------------------------|


 Guitar Solo
  F5        Dm/F   F5      Dm/F   F5           Dm/F F5           DmBb5
  Gtr III
                                                  ~~~~~~~~~~~~
    Q.         +E  e  Q.           +E      +E  E  E  +H
|------------------8------------|--------------8-----------------------|
|--11b13------(11)---11b12------|-(11)b13-(11)---11-(11)b11.5----------|
|-------------------------------|--------------------------------------|
|-------------------------------|--------------------------------------|
|-------------------------------|--------------------------------------|
|-------------------------------|--------------------------------------|
|
| Gtr II
|   PM      PM     PM      PM       PM         PM     PM         PM
|   E     E E   E  E  E    E  E     E       E  E  E   E        E E  E
|-------------------------------|--------------------------------------|
|-------------------------------|--------------------------------------|
|-------------------------------|--------------------------------------|
|-------------------------------|-----------------------------------3/-|
|---3-----3-5---5--3--3----5--5-|---3-------3--5--5---3--------3-5--1/-|
|---1-----1-1---1--1--1----1--1-|---1-------1--1--1---1--------1-1-----|
|
| Gtr I
|   PM      PM     PM      PM       PM         PM     PM         PM
|   e     E E   E  E  E    E  E     E       E  E  E   E        E E  E
|-------------------------------|--------------------------------------|
|-------------------------------|--------------------------------------|
|-/10----10----10----10------10-|----------10----10-----------10---10--|
|-/10----10----10----10------10-|----------10----10-----------10---10--|
|---8-------8------8-------8----|---8----------8------8----------8-----|
|-------------------------------|--------------------------------------|


  C5C5/G   Am/C   C5       Am/C     C5   Am/C C5    Am/C
                                            ~~~~~~
  E  E      +E  E  Q        +e  E   E  E  E E +Q    +Q
|---------------------------------|---------8-(8)---(8)\----|
|---11pb13r(11)-------------------|-------------------------|
|-----------------10pb12r==(10)-8h|=9-----------------------|
|---------------------------------|---10-10-----------------|
|---------------------------------|-------------------------|
|---------------------------------|-------------------------|
|
| PM         PM    PM        PM     PM    PM   PM    PM
| E  E       E  E  E     E   E  E   E  E  E E  E  E  E   E
|---------------------------------|-------------------------|
|---------------------------------|-------------------------|
|---------------------------------|-------------------------|
|-5--5-------7--7--5-----5---7--7-|-5--5--7-7--5--5--7---7--|
|-3--3-------3--3--3-----3---3--3-|-3--3--3-3--3--3--3---3--|
|---------------------------------|-------------------------|
|
| PM         PM    PM        PM     PM    PM   PM    PM
| E  E       E  E  E     E   E  E   E  E  E E  E  E  E   E
|---------------------------------|-------------------------|
|---------------------------------|-------------------------|
|----5----------5--------5------5-|----5----5-----5------5/-|
|----5----------5--------5------5-|----5----5-----5------5/-|
|-3----------3-----3---------3----|-3-----3----3-----3------|
|---------------------------------|-------------------------|


  F5     Dm/F     F5     Dm/F         F5         Dm/F  F5   Dm/F
       PM                                         ~~
    E  E  Q       E  S S  S S  S  S    S  S  S S  H         E  E
|-----------------8-----------------|-----------------------------|
|--------11b13------11-8----8-------|-----------------------------|
|-----10-----------------10----8----|-10-10----8------------8-----|
|--------------------------------10-|-------10---10-----------10\-|
|-----------------------------------|-----------------------------|
|-----------------------------------|-----------------------------|
|
|   PM    PM      PM      PM           PM         PM   PM   PM
|   E  E  E     E E  E    E    E       E     E    E  E E  E E  E
|-----------------------------------|-----------------------------|
|-----------------------------------|-----------------------------|
|-----------------------------------|-----------------------------|
|-----------------------------------|-----------------------------|
|---3--3--5-----5-3--3----5----5----|--3-----3----5--5-3--3-5--5--|
|---1--1--1-----1-1--1----1----1----|--1-----1----1--1-1--1-1--1--|
|
|   PM    PM      PM      PM           PM         PM   PM   PM
|   e  E  E     E E  E    E    E       E     E    E  E E  E E  E
|-----------------------------------|-----------------------------|
|-----------------------------------|-----------------------------|
|-/10-10-------10---10--------10----|-------10------10---10---10--|
|-/10-10-------10---10--------10----|-------10------10---10---10--|
|---8-----8-------8-------8---------|--8----------8----8----8-----|
|-----------------------------------|-----------------------------|


  G5 G5/D  D5     G5/D    D5     G5/D
   E E E E  E E E E   E E  E E E E E E
|----------10-------|-----10------------||
|----8-----10-----8-|-----10-----8------||
|----7------------7-|------------7------||
|------7-7----7-7---|-7-7----7-7---7-7--||
|-------------------|-------------------||
|-------------------|-------------------||
|
|  E E E E  E E E E   E E  E E E E E E
|-------------------|-------------------||
|----8p7---10p7---8p|=7---10p7---8p7----||
|----7------7-----7-|------7-----7------||
|--------7------7---|---7------7-----7--||
|-------------------|-------------------||
|-------------------|-------------------||
|
|  E E Q    H         W
|-------------------|-------------------||
|-------------------|-------------------||
|-12----------------|-------------------||
|-12----------------|-------------------||
|-10----------------|-------------------||
|-------------------|-------------------||


      F#mGm   F/C     G#   Am F5/C B5C5/G
  Gtrs II, III
                                      ~~~~~~~
  Q    a  E E  Q.      E    E  E E a  E  +H
|------------------------|-------------------------|
|-----10s11---10---------|-------------------------|
|-----11s12---10---------|----10-------------------|
|-------------10------10-|-10-10---9s10-(10)-------|
|---------------------11-|-12------9s10-(10)-------|
|------------------------|-------------------------|
|
| Gtr I
| PM      PM   PM   PM      PM   PM       PM   PM
| E E     E E  E  E E  E    E  E E    E   E  E E E
|------------------------|-------------------------|
|------------------------|-------------------------|
|---5-------5-----5----5-|-----5------5------5---5-|
|---5-------5-----5----5-|-----5------5------5---5-|
|-3-------3----3----3----|--3----3--------3----3---|
|------------------------|-------------------------|


                                       D.S. al Coda
      F#mGm   F/C     G#   Am F5/C B5C5/G
                                      ~~~~~~~
  Q    a  E E  Q.      E    E  E E a  E  +H
|------------------------|----------------------------||
|-----10s11---10---------|----------------------------||
|-----11s12---10---------|----10----------------------||
|-------------10------10-|-10-10---9s10-(10)----------||
|---------------------11-|-12------9s10-(10)----------||
|------------------------|----------------------------||
|
| PM      PM   PM   PM      PM   PM       PM   PM
| E E     E E  E  E E  E    E  E E    E   E  E S S E
|------------------------|----------------------------||
|------------------------|----------------------------||
|---5-------5-----5----5-|-----5------5------5-----3--||
|---5-------5-----5----5-|-----5------5------5-3h5----||
|-3-------3----3----3----|--3----3--------3-----------||
|------------------------|----------------------------||


  &
      F/A   Em/G    F/A   Em/G  C/F/A C/G G5
  Gtr III
  W                 W                     E  E  E  E  +H
|-----------------|---------------------|--------------------|
|-----------------|---------------------|--------------------|
|-----------------|---------------------|---------16-(16)----|
|-----------------|---------------------|------17------------|
|-----------------|---------------------|---17---------------|
|-----------------|---------------------|--------------------|
|
| Gtr II
| Q   E E E E E E   E E E E +E  E E   E   E  E  E  E  +H
|-----------------|---------------------|--------------------|
|-----6---6p5-----|-6---6p5-(5)-5-6---5-|--------------------|
|-----5---5-----x-|-5---5-------5-5---5-|----------0--(0)----|
|-----7---7p5---x-|-7---7p5-(5)-5-7---5-|-------0------------|
|-----------------|---------------------|--------------------|
|-----------------|---------------------|----3---------------|
|
| Gtr I
| PM  PM  PM  PM    PM  PM   PM   PM
| E E E E E E E E   E E E E  E  E S S E   W
|-----------------|---------------------|--------------------|
|-----------------|---------------------|--------------------|
|---5---5---5---5-|---5---5-----5-----3-|--------------------|
|---5---5---5---5-|---5---5-----5-3h5---|-5------------------|
|-3---3---3---3---|-3---3----3----------|-5------------------|
|-----------------|---------------------|-3------------------|


                             F/A   Em/G    F/A   Em/G  C/F/A C/G
   E   E  E  E  +H       E E E E E E E E   E E E E  E  E E   E
|----------------------|-----------------|----------------------|
|----------------------|---x-x-x-x-x-x-x-|-x-x-x-x--x--x-x---x--|
|-16--------16-(16)----|---x-x-x-x-x-x-x-|-x-x-x-x--x--x-x---x--|
|--------17------------|---x-x-x-x-x-x-x-|-x-x-x-x--x--x-x---x--|
|-----17---------------|-----------------|----------------------|
|----------------------|-----------------|----------------------|
|
| +E   E  E  E  +H       Q   E E E E E E   E E E E +E  E E   E
|----------------------|-----------------|----------------------|
|----------------------|-----6---6p5-----|-6---6p5-(5)-5-6---5--|
|-(0)--------0--(0)----|-----5---5-----x-|-5---5-------5-5---5--|
|---------0------------|-----7---7p5---x-|-7---7p5-(5)-5-7---5--|
|----------------------|-----------------|----------------------|
|------3---------------|-----------------|----------------------|
|
|                        PM  PM  PM  PM    PM  PM   PM   PM
| +W                     E E E E E E E E   E E E E  E  E S S E
|----------------------|-----------------|----------------------|
|----------------------|-----------------|----------------------|
|----------------------|---5---5---5---5-|---5---5-----5--------|
|-(5)------------------|---5---5---5---5-|---5---5-----5-5p3----|
|-(5)------------------|-3---3---3---3---|-3---3----3--------5--|
|-(3)------------------|-----------------|----------------------|


  G5
  E  E  E  E  +H        +E   E  E  E  +H
|--------------------|-----------------------|
|--------------------|-----------------------|
|---------16-(16)----|-(16)-------16-(16)----|
|------17------------|---------17------------|
|---17---------------|------17---------------|
|--------------------|-----------------------|
|
| E  E  E  E  +H        +E   E  E  E  +H
|--------------------|-----------------------|
|--------------------|-----------------------|
|----------0--(0)----|--(0)--------0--(0)----|
|-------0------------|----------0------------|
|--------------------|-----------------------|
|----3---------------|-------3---------------|
|
| W                     +W
|--------------------|-----------------------|
|--------------------|-----------------------|
|--------------------|-----------------------|
|-5------------------|--(5)------------------|
|-5------------------|--(5)------------------|
|-3------------------|--(3)------------------|


      F/A   Em/G    F/A   Em/G  C/F/A C/G
  E E E E E E E E   E E E E  E  E E   E
|-----------------|----------------------|
|---x-x-x-x-x-x-x-|-x-x-x-x--x--x-x---x--|
|---x-x-x-x-x-x-x-|-x-x-x-x--x--x-x---x--|
|---x-x-x-x-x-x-x-|-x-x-x-x--x--x-x---x--|
|-----------------|----------------------|
|-----------------|----------------------|
|
| Q   E E E E E E   E E E E +E  E E   E
|-----------------|----------------------|
|-----6---6p5-----|-6---6p5-(5)-5-6---5--|
|-----5---5-----x-|-5---5-------5-5---5--|
|-----7---7p5---x-|-7---7p5-(5)-5-7---5--|
|-----------------|----------------------|
|-----------------|----------------------|
|
| PM  PM  PM  PM    PM  PM   PM   PM
| E E E E E E E E   E E E E  E  E S S E
|-----------------|----------------------|
|-----------------|----------------------|
|---5---5---5---5-|---5---5-----5--------|
|---5---5---5---5-|---5---5-----5-5p3----|
|-3---3---3---3---|-3---3----3--------5--|
|-----------------|----------------------|


  E  E  E  E  H         +W
|-------------------|---------------------|
|------------15-----|-()--------------|
|---------16--------|---------------------|
|------17-----------|---------------------|
|---17--------------|---------------------|
|-------------------|---------------------|
|
| E  E  E  E +H         +E   E E E +H
|-------------------|---------------------|
|-------------------|---------------------|
|----------0-(0)----|---(0)------0-(0)----|
|-------0-----------|----------0----------|
|-------------------|---------------------|
|----3--------------|--------3------------|
|
| W                     +W
|-------------------|---------------------|
|-------------------|---------------------|
|-------------------|---------------------|
|-5-----------------|---(5)---------------|
|-5-----------------|---(5)---------------|
|-3-----------------|---(3)---------------|


       F/A      Em/G    F/A        Em/G   C/F/A C/G
  E  E  E  E  H          +E   E  E  E  H
|------------15-------|-(15)----------15-----------|
|---------17----------|------------17--------------|
|-x----17-------------|---------17-----------------|
|-x-17----------------|------17--------------------|
|---------------------|----------------------------|
|---------------------|----------------------------|
|
| Q     E  E  E E E E     E   E  E  E +E  E E   E
|---------------------|----------------------------|
|-------6-----6p5-----|---6------6p=5-(5)-5-6---5--|
|-------5-----5-----x-|---5------5--------5-5---5--|
|-------7-----7p5---x-|---7------7p=5-(5)-5-7---5--|
|---------------------|----------------------------|
|---------------------|----------------------------|
|
| PM    PM    PM  PM      PM     PM    PM   PM
| E  E  E  E  E E E E     E   E  E  E  E  E S S E
|---------------------|----------------------------|
|---------------------|----------------------------|
|----5-----5----5---5-|-------5-----5-----5--------|
|----5-----5----5---5-|-------5-----5-----5-5p3----|
|-3-----3-----3---3---|---3------3-----3--------5--|
|---------------------|----------------------------|


  E  E  E  E  +H        +E   E  E  E  +H
|--------------------|-----------------------|
|--------------------|------------15-(15)----|
|---------16-(16)----|-(16)------------------|
|------17------------|---------17------------|
|---17---------------|------17---------------|
|--------------------|-----------------------|
|
| E  E  E  E  +H        +E   E  E  E  +H
|--------------------|-----------------------|
|--------------------|-----------------------|
|----------0--(0)----|--(0)--------0--(0)----|
|-------0------------|----------0------------|
|--------------------|-----------------------|
|----3---------------|-------3---------------|
|
| W                     +W
|--------------------|-----------------------|
|--------------------|-----------------------|
|--------------------|-----------------------|
|-5------------------|--(5)------------------|
|-5------------------|--(5)------------------|
|-3------------------|--(3)------------------|


          F/A       Em/G    F/A        Em/G    C/F/A C/G
   +E   E  E  E  +H          +E   E  E  E  +H
|------15-----------------|------------15-(15)----------|
|-(15)----17--------------|---------17------------------|
|------------17-(17)------|-(17)------------------------|
|-------------------------|------17---------------------|
|-------------------------|-----------------------------|
|-------------------------|-----------------------------|
|
|   Q      E  E   E E E E     E   E  E  E  +E  E E   E
|-------------------------|-----------------------------|
|----------6------6p5-----|---6------6p=5--(5)-5-6---5--|
|----------5------5-----x-|---5------5---------5-5---5--|
|----------7------7p5---x-|---7------7p=5--(5)-5-7---5--|
|-------------------------|-----------------------------|
|-------------------------|-----------------------------|
|
|   PM     PM     PM  PM      PM     PM     PM   PM
|   E   E  E  E   E E E E     E   E  E  E   E  E S S E
|-------------------------|-----------------------------|
|-------------------------|-----------------------------|
|-------5-----5-----5---5-|-------5-----5------5--------|
|-------5-----5-----5---5-|-------5-----5------5-5p3----|
|---3------3------3---3---|---3------3------3--------5--|
|-------------------------|-----------------------------|


  E  E  E  E  H        +E   E  E  E  +E   Q.
|-------------------|--------------------------|
|------------15-----|-(15)----15---------------|
|------16-----------|------------16-(16)-------|
|---------17--------|--------------------17----|
|---17--------------|------17------------------|
|-------------------|--------------------------|
|
|                                     ~~~~
| E  E  E  E +H        +E   E  E  E  +H
|-------------------|--------------------------|
|-------------------|--------------------------|
|-------------------|--------------------------|
|-------------------|--------------------------|
|-------5-----------|----------5---------------|
|----3-----3-(3)----|--(3)--3-----3--(3)-------|
|
| W                    +W
|-------------------|--------------------------|
|-------------------|--------------------------|
|-------------------|--------------------------|
|-5-----------------|--(5)---------------------|
|-5-----------------|--(5)---------------------|
|-3-----------------|--(3)---------------------|


    C5/F/A       Em/G         F/AEm/G  C5
  E  E  E  E  +H          +E   E  E  E  +E   Q.
|---------15-(15)------|-(15)----15-----------------------|
|------17--------------|------------17-(17)---------------|
|----------------------|--------------------17------------|
|---17-----------------|------17--------------------------|
|----------------------|----------------------------------|
|----------------------|----------------------------------|
|
| Q     E  E   E E E E     E   E  E  E   Q      +Q
|----------------------|-----------------8------(8)\------|
|-------6------6p5---x-|---x---6p=5------8------(8)\------|
|-------5------5-----x-|---x---5---------5------(5)\------|
|-------7------7p5---x-|---x---7p=5--5--------------------|
|----------------------|----------------------------------|
|----------------------|----------------------------------|
|
| PM    PM     PM  PM      PM     PM     PM      PM
| E  E  E  E   E E E E     E   E  E  E   E   E   S   S E
|----------------------|----------------------------------|
|----------------------|----------------------------------|
|----5-----5-----5---5-|-------5-----5-------5------------|
|----5-----5-----5---5-|-------5-----5-------5---5p==3----|
|-3-----3------3---3---|---3------3------3-------------5--|
|----------------------|----------------------------------|


 Outro
  E  E  E  E  +H        +E   E  E  E  +E   Q.
|--------------------|--------------------------|
|--------------------|--------------------15----|
|---------16-(16)----|-(16)-------16-(16)-------|
|------17------------|---------17---------------|
|---17---------------|------17------------------|
|--------------------|--------------------------|
|
| E  E  E  E  +H         E   E  E  E  +H
|--------------------|--------------------------|
|--------------------|--------------------------|
|----------0--(0)----|-------------0--(0)-------|
|-------0------------|----------0---------------|
|--------------------|--------------------------|
|----3---------------|-------3------------------|
|
| W                     +W
|--------------------|--------------------------|
|--------------------|--------------------------|
|--------------------|--------------------------|
|-5------------------|--(5)---------------------|
|-5------------------|--(5)---------------------|
|-3------------------|--(3)---------------------|


    C5/F/A      Em/G    F/A        Em/G
  E  E  E  E  H          +E   E  E  E  +E   Q.
|------------15-------|-(15)-------15-(15)------------|
|---------17----------|---------17---------17---------|
|------17-------------|-------------------------------|
|---17----------------|------17-----------------------|
|---------------------|-------------------------------|
|---------------------|-------------------------------|
|
| E  E  E  E  E E E E     E   E  E  E  +E   E  E   E
|---------------------|---------------------8---------|
|----x--6-----6p5---x-|---6------6p=5--(5)-----8------|
|----x--5-----5-----x-|---5------5-----------------9--|
|----x--7-----7p5---x-|---7------7p=5--(5)------------|
|---------------------|-------------------------------|
|---------------------|-------------------------------|
|
| PM    PM    PM  PM      PM     PM     PM     PM
| E  E  E  E  E E E E     E   E  E  E   E   E  S S E
|---------------------|-------------------------------|
|---------------------|-------------------------------|
|----5-----5----5---5-|-------5-----5-------5---------|
|----5-----5----5---5-|-------5-----5-------5--5p3----|
|-3-----3-----3---3---|---3------3------3----------5--|
|---------------------|-------------------------------|


  E  E  E  E  +H        +E   E  E  E  +H
|--------------------|-----------------------|
|---------15-(15)----|-(15)-------15-(15)----|
|------16------------|---------16------------|
|--------------------|-----------------------|
|---17---------------|------17---------------|
|--------------------|-----------------------|
|
| E  E  E  E  +H         E   E  E  E  +H
|--------------------|-----------------------|
|--------------------|-----------------------|
|----------0--(0)----|-------------0--(0)----|
|-------0------------|----------0------------|
|--------------------|-----------------------|
|----3---------------|-------3---------------|
|
| W                     +W
|--------------------|-----------------------|
|--------------------|-----------------------|
|--------------------|-----------------------|
|-5------------------|--(5)------------------|
|-5------------------|--(5)------------------|
|-3------------------|--(3)------------------|


    C5/F/A      Em/G    F/A        Em/G    F/Em/GC5/G
  E  E  E  E  H          +E   E  E  E  +H
|---------15----------|-----------------------------|
|------17----17-------|-(17)-------17-(17)----------|
|---------------------|---------17------------------|
|---17----------------|------17---------------------|
|---------------------|-----------------------------|
|---------------------|-----------------------------|
|
| E  E  E  E  E E E E     E   E  E  E  +E  E E   E
|---------------------|-----------------------------|
|----x--6-----6p5---x-|---6------6p=5--(5)-6p5------|
|----x--5-----5-----x-|---5------5---------5-----5--|
|----x--7-----7p5---x-|---7------7p=5--(5)-7p5---5--|
|---------------------|-----------------------------|
|---------------------|-----------------------------|
|
| PM    PM    PM  PM      PM     PM     PM   PM
| E  E  E  E  E E E E     E   E  E  E   E  E S S E
|---------------------|-----------------------------|
|---------------------|-----------------------------|
|----5-----5----5---5-|-------5-----5------5--------|
|----5-----5----5---5-|-------5-----5------5-5p3----|
|-3-----3-----3---3---|---3------3------3--------5--|
|---------------------|-----------------------------|


  E  E  E  E  +H        +E   E  E  E  +E   Q.
|--------------------|--------------------------|
|--------------------|--------------------15----|
|---------16-(16)----|-(16)-------16-(16)-------|
|------17------------|---------17---------------|
|---17---------------|------17------------------|
|--------------------|--------------------------|
|
| E  E  E  E  +H        +E   E  E  E  +H
|--------------------|--------------------------|
|--------------------|--------------------------|
|----------0--(0)----|--(0)--------0--(0)-------|
|-------0------------|----------0---------------|
|--------------------|--------------------------|
|----3---------------|-------3------------------|
|
| W                     +W
|--------------------|--------------------------|
|--------------------|--------------------------|
|--------------------|--------------------------|
|-5------------------|--(5)---------------------|
|-5------------------|--(5)---------------------|
|-3------------------|--(3)---------------------|


    BbC5/F/A       Em/G BbC5/G F/A     Em/G      F/A Em/G
  E    E  E  E  +E  Q      E    E  Q    E  +H
|------------------15--------|---------15-(15)----------|
|-----------17-(17)----------|----17--------------------|
|--------17------------------|-17-----------------------|
|-----17------------------17-|--------------------------|
|----------------------------|--------------------------|
|----------------------------|--------------------------|
|
| E a  E  E  E   E  E E a  E    E  E E  E  +E  E E   E
|----------------------------|--------------------------|
|---------6------6p=5--------|--6----6p=5--(5)---6p==5--|
|---3s=5--5------5------3s=5-|--5----5---------5-5------|
|---3s=5--7------7p=5---3s=5-|--7----7p=5--(5)---7p==5--|
|----------------------------|--------------------------|
|----------------------------|--------------------------|
|
| PM      PM     PM   PM        PM   PM     PM   PM
| E    E  E  E   E  E E    E    E  E E  E   E  E S S E
|----------------------------|--------------------------|
|----------------------------|--------------------------|
|------5-----5------5------5-|-----5----5------5--------|
|------5-----5------5------5-|-----5----5------5-5p3----|
|-3-------3------3----3------|--3----3------3--------5--|
|----------------------------|--------------------------|


  G5
  E    E  E  E  +E   Q.      +E     E  E  E  +E   Q.
|-------------------------|----------------------------|
|-------------------15----|-(15)-----------------15----|
|-----------16-(16)-------|--------------16-(16)-------|
|--------17---------------|-----------17---------------|
|-----17------------------|--------17------------------|
|-------------------------|----------------------------|
|
| E a  E  E  E  +H           +E  a  E  E  E  +H
|-------------------------|----------------------------|
|-------------------------|----------------------------|
|------------0--(0)-------|--(0)----------0--(0)-------|
|---------0---------------|------------0---------------|
|-------------------------|----------------------------|
|---1s=3------------------|------1s=3------------------|
|
| W                          +W
|-------------------------|----------------------------|
|-------------------------|----------------------------|
|-------------------------|----------------------------|
|-5-----------------------|--(5)-----------------------|
|-5-----------------------|--(5)-----------------------|
|-3-----------------------|--(3)-----------------------|


    BbC5/F/A      Em/G BbC5/G F/A       Em/G        F/A Em/G
  E    Q    E  +E  Q      E    +E   Q    E  +E   Q.
|-----15--------------------|-------------------15---------*|
|----------17-(17)----------|-----------17-(17)------------*|
|-----------------17--------|------17----------------------*|
|------------------------17-|-(17)-------------------------*|
|---------------------------|------------------------------*|
|---------------------------|------------------------------*|
|
| E a  E E  E   E  E E a  E     E   E E  E  +E   E  E   E
|---------------------------|------------------------------*|
|--------6------6p=5--------|---6-----6p=5--(5)-----6p==5--*|
|---3s=5-5------5------3s=5-|---5-----5----------5--5------*|
|---3s=5-7------7p=5---3s=5-|---7-----7p=5--(5)-----7p==5--*|
|---------------------------|------------------------------*|
|---------------------------|------------------------------*|
|
| PM     PM     PM   PM         PM    PM     PM     PM
| E    E E  E   E  E E    E     E   E E  E   E   E  S S E
|---------------------------|------------------------------*|
|---------------------------|------------------------------*|
|------5----5------5------5-|-------5----5-------5---------*|
|------5----5------5------5-|-------5----5-------5--5p3----*|
|-3------3------3----3------|---3-----3------3----------5--*|
|---------------------------|------------------------------*|



Duration Legend
---------------
W - whole; H - half; Q - quarter; E - 8th; S - 16th; T - 32nd; X - 64th; a - acciaccatura
+ - note tied to previous; . - note dotted; .. - note double dotted
Uncapitalized letters represent notes that are staccato (1/2 duration)
Irregular groupings are notated above the duration line
Duration letters will always appear directly above the note/fret number it represents the
duration for.  Duration letters with no fret number below them represent rests.  Multi-
bar rests are notated in the form Wxn, where n is the number of bars to rest for.  Low
melody durations appear below the staff

Tablature Legend
----------------
 h   - hammer-on
 p   - pull-off
 b   - bend
 pb  - pre-bend
 r   - bend release (if no number after the r, then release immediately)
 /\  - slide into or out of (from/to "nowhere")
 s   - legato slide
 S   - shift slide
 - natural harmonic
[n]  - artificial harmonic
n(n) - tapped harmonic
 ~   - vibrato
 tr  - trill
 T   - tap
 TP  - trem. picking
 PM  - palm muting
\n/  - tremolo bar dip; n = amount to dip
 \n  - tremolo bar down
 n/  - tremolo bar up
/n\  - tremolo bar inverted dip
 =   - hold bend; also acts as connecting device for hammers/pulls
 <> - volume swell (louder/softer)
 x   - on rhythm slash represents muted slash
 o   - on rhythm slash represents single note slash

Misc Legend
-----------
 |  - bar
||  - double bar
||o - repeat start
o|| - repeat end
*|  - double bar (ending)
 :  - bar (freetime)
 $  - Segno
 &  - Coda
Tempo markers -  = BPM(8/16=s8/s16), where s8 = swing 8ths, s16 = swing 16ths





Comments


Popular Zz Top tabs & chords
Tube Snake Boogie Bass Tabs
Jesus Just Left Chicago Chords
Girl In A T-Shirt Tabs
Hot, Blue, & Righteous Tabs
I'm Bad, I'm Nationwide Tabs
Just Got Paid Tabs
Master Of Sparks Tabs
My Head's In Mississippi Tabs
Velcro Fly Tabs
Cheap Sunglasses Ukulele


Song lyrics



↑ Back to top | Tablatures and chords are parodies/interpretations of the original songs. You may use it for private study, scholarship, research or language learning purposes only
© 2014 AZChords.com Contact us | Privacy policy | DMCA | Add/correct tabs | Request tabs | Top 50 tabs