» » »

Zz Top, Flying High Tabs (ver.1)

Artists:  A B C D E F G H I J K L M N O P Q R S T U V W X Y Z # 

Flying High Tabs (ver.1)

Zz Top Tabs
Rating:
0/5 (0 votes)
Flying High lessons Tabs too difficult? Try these video lessons and learn fast
                ===========================================
Tabbing first time, I'm sorry for mistakes.

===========================================

e|------------| 
B|------------|
G|-2----44-2--|  x3
D|-2-4--------|  
A|---4--22-0--|
E|------------|

e|------------------|
B|------------------|
G|---------------4--|
D|-----2-4----------|
A|-2-4-----2-0---2--|
E|-------------2----|

e|-------------------------------|
B|-------------------------------|
G|-----------------------4--4-2--|
D|--4--4---4--4---4--4-----------|
A|--4-—4---4--4---4--4---2--2-0--|
E|-------------------------------|

e|----------------------------------|
B|----------------------------------|
G|-----------------------4-4-2---4--|
D|--4--4---4--4---4--4-----------4--|
A|--4-—4---4--4---4--4---2-2-0---2--|
E|----------------------------------|

Chorus:
   F#       C#      D#      B               
e|--------------------------------------------------|
B|--------------------------------------------------|
G|--------------------------------------------------|  x3
D|------------66666666--88888888--44444444----------|
A|--44444444--44444444--66666666--22222222----------|
E|--22222222----------------------------------------|

   F#       C#      D#      B               
e|--------------------------------------------------------|
B|--------------------------------------------------------|
G|--------------------------------------------------------|  
D|------------66666666--88888888—-44444444(hold 2 takts)--|
A|--44444444--44444444--66666666—-22222222(hold 2 takts)--|
E|--22222222----------------------------------------------|

e|----------------------------------| 
B|----------------------------------|
G|-2----44-2-------------------4----|  
D|-2-4--------------2-4-------------|  
A|---4--22-0----2-4------2-0---2----|
E|---------------------------2------|

e|-------------------------------|
B|-------------------------------|
G|-----------------------4--4-2--|
D|--4--4---4--4---4--4-----------|
A|--4-—4---4--4---4--4---2--2-0--|
E|-------------------------------|

e|----------------------------------|
B|----------------------------------|
G|-----------------------4-4-2---4--|
D|--4--4---4--4---4--4-----------4--|
A|--4-—4---4--4---4--4---2-2-0---2--|
E|----------------------------------|

Chorus:
   F#       C#      D#      B               
e|--------------------------------------------------|
B|--------------------------------------------------|
G|--------------------------------------------------|  x3
D|------------66666666--88888888--44444444----------|
A|--44444444--44444444--66666666--22222222----------|
E|--22222222----------------------------------------|

   F#       C#      D#      B               
e|--------------------------------------------------------|
B|--------------------------------------------------------|
G|--------------------------------------------------------|  
D|------------66666666--88888888—-44444444(hold 2 takts)--|
A|--44444444--44444444--66666666—-22222222(hold 2 takts)--|
E|--22222222----------------------------------------------|

Solo 1:

e|------5----------57-75-75-57-7b-75-----------------------------------|
B|---7-7----7-7-5---------------------7-7-7-7-5------5-----------------|
G|--6-6----6-6-----------------------6-6-------6-4-6---4-4-2-44-2-4-2--|
D|---------------------------------------------------------------------|
A|---------------------------------------------------------------------|
E|---------------------------------------------------------------------|

e|---------------------------------------------------------------------|
B|----------------------------------------------------555-55-5-55-5----|
G|--4-2------------------------------------4b-4b-42---444-44-4-44-4-42-|
D|------4-2------------------------------------------4---4--4-4--4-----|
A|----------4-2-----------------------4-202----------------------------|
E|--------------5b-5-5-2-5b-2-5-2-5-2----------------------------------|

e|---------------------------------------------------------------------|
B|---------------------7--55-22-0--------------------------------------|
G|--4b-4b---2---44-2--6------------------------------------------------|
D|--------4---4--------------------------------------------------------|
A|---------------------------------------------------------------------|
E|---------------------------------------------------------------------|

   F#       C#      D#      B               
e|--------------------------------------------------|
B|--------------------------------------------------|
G|--------------------------------------------------|  x3
D|------------66666666--88888888--44444444----------|
A|--44444444--44444444--66666666--22222222----------|
E|--22222222----------------------------------------|

   F#       C#      D#      B               
e|--------------------------------------------------------------|
B|--------------------------------------------------------------|
G|--------------------------------------------------------------|  
D|------------66666666--88888888—-44444444(hold 2 takts)--------|
A|--44444444--44444444--66666666—-22222222(hold 2 takts)--------|
E|--22222222----------------------------------------------------|

Solo 2:

e|--------------------------------------------------------------|
B|---77-7-9b-7-99-7-9-9b--7-9b-7--------------------------------|
G|--6--6-6--6----6------66----6---2----44-2---------------------|
D|--------------------------------2-4---------------------------|
A|----------------------------------4—-22-0---------------------|
E|--------------------------------------------------------------|


e|--------------------------------------------------------------|
B|---77-77-7-9b-7-9-7-9~----------------------------------------|
G|--6--6--6--------6------2----44-2-----------------------------|
D|------------------------2-4-----------------------------------|
A|--------------------------4--22-0-----------------------------|
E|--------------------------------------------------------------|

e|--------------------------------------7777--------------------|
B|---77-7-7-9b-77---------------77-7-9b-----7-9b----------------|
G|--6--6-6----------2----44-2-----6----------------2----44-2----|
D|------------------2-4----------------------------2-4----------|
A|--------------------4--22-0------------------------4--22-0----|
E|--------------------------------------------------------------|

e|--------------------------------------------------------------|
B|---77-7-7-9b-77-9-7-9b-9b-9b-7-9b-7-9b-9b-9b--7---------------|
G|--6--6-6-------------------------------------6-6-4-4-2--------|
D|-------------------------------------------------------4-4----|
A|--------------------------------------------------------------|
E|--------------------------------------------------------------|
            
Submit corrections

comments powered by Disqus
↑ Back to top | Zz Top Tabs for Flying High. Lyrics for acoustic guitar and electric guitar. Tablatures and chords are parodies/interpretations of the original songs. You may use it for private study, scholarship, research or language learning purposes only