>
 >
Concrete And Steel

Concrete And Steel Bass Tabs

Zz Top - Concrete And Steel chords, tabs, tablatures, lyrics

Guitar lessons | Add/correct | Request | Top 50 tabs Artists:  A B C D E F G H I J K L M N O P Q R S T U V W X Y Z 0-9

Concrete And Steel Bass Tabs – Zz Top

CD, Sheet music, Poster

Do you like Concrete And Steel? Share with your friends now
Bass TabsTabs

CONCRETE AND STEEL (Bassline)
As recorded by ZZ Top





Gtr I (E A D G) - 'Bass'
Gtr II (E A D G) - 'Bass-synth'

  Q=127
 4/4
  Gtrs I, II
  W          E E E E E E E E   E E E E E E E E   E E E E E E E E
|----------|-----------------|-----------------|------------------|
|----------|-----------------|-----------------|------------------|
|----------|-----------------|-----------------|------------------|
|----------|-0-0-0-0-0-0-0-0-|-0-0-0-0-0-0-0-0-|-0-0-0-0-0-0-0-0--|


  E E E E E E E E   E E E E E E E E   E E E E E E E E   E E E E E E E E
|-----------------|-----------------|-----------------|-----------------|
|-----------------|-----------------|-----------------|-----------------|
|-----------------|-----------------|-----------------|-----------------|
|-0-0-0-0-0-0-0-0-|-0-0-0-0-0-0-0-0-|-0-0-0-0-0-0-0-0-|-0-0-0-0-0-0-0-0-|


  E E E E E E E E   E E E E E E E E   E E E E E E E E   E E E E E E E E
|-----------------|-----------------|-----------------|-----------------|
|-----------------|-----------------|-----------------|-0-0-0-0-0-0-0-0-|
|-----------------|-----------------|-----------------|-----------------|
|-0-0-0-0-0-0-0-0-|-0-0-0-0-0-0-0-0-|-0-0-0-0-0-0-0-0-|-----------------|


  E E E E E E E E   E E E E E E E E   E E E E E E E E   E E E E E E E E
|-----------------|-----------------|-----------------|-----------------|
|-----------------|-----------------|-----------------|-----------------|
|-3-3-3-3-3-3-3-3-|-----------------|-----------------|-5-5-5-5-5-5-5-5-|
|-----------------|-0-0-0-0-0-0-0-0-|-0-0-0-0-0-0-0-0-|-----------------|


  E E E E E E E E   E E E E E E E E   E E E E E E E E   E E E E E E E E
|-----------------|-----------------|-----------------|-----------------|
|-----------------|-2-2-0-0---------|-----------------|-0-0-0-0-0-0-0-0-|
|-3-3-3-3-3-3-3-3-|---------2-2-0-0-|-----------------|-----------------|
|-----------------|-----------------|-0-0-0-0-0-0-0-0-|-----------------|


  E E E E E E E E   E E E E E E E E   E E E E E E E E   E E E E E E E E
|-----------------|-----------------|-----------------|-----------------|
|-2-2-2-2-2-2-2-2-|-2-2-0-0---------|-----------------|-0-0-0-0-0-0-0-0-|
|-----------------|---------2-2-0-0-|-----------------|-----------------|
|-----------------|-----------------|-0-0-0-0-0-0-0-0-|-----------------|


  E E E E E E E E   E E E E E E E E   E E E E E E E E   E E E E E E E E
|-----------------|-----------------|-----------------|-----------------|
|-2-2-2-2-2-2-2-2-|-----------------|-----------------|-0-0-0-0-0-0-0-0-|
|-----------------|-----------------|-----------------|-----------------|
|-----------------|-0-0-0-0-0-0-0-0-|-0-0-0-0-0-0-0-0-|-----------------|


  E E E E E E E E   E E E E E E E E   E E E E E E E E   E E E E E E E E
|-----------------|-----------------|-----------------|-----------------|
|-----------------|-----------------|-----------------|-----------------|
|-3-3-3-3-3-3-3-3-|-----------------|-----------------|-5-5-5-5-5-5-5-5-|
|-----------------|-0-0-0-0-0-0-0-0-|-0-0-0-0-0-0-0-0-|-----------------|


  E E E E E E E E   E E E E E E E E   E E E E E E E E   E E E E E E E E
|-----------------|-----------------|-----------------|-----------------|
|-----------------|-2-2-0-0---------|-----------------|-0-0-0-0-0-0-0-0-|
|-3-3-3-3-3-3-3-3-|---------2-2-0-0-|-----------------|-----------------|
|-----------------|-----------------|-0-0-0-0-0-0-0-0-|-----------------|


  E E E E E E E E   E E E E E E E E   E E E E E E E E   E E E E E E E E
|-----------------|-----------------|-----------------|-----------------|
|-2-2-2-2-2-2-2-2-|-2-2-0-0---------|-----------------|-0-0-0-0-0-0-0-0-|
|-----------------|---------2-2-0-0-|-----------------|-----------------|
|-----------------|-----------------|-0-0-0-0-0-0-0-0-|-----------------|


  E E E E E E E E   E E E E E E E E   E E E E E E E E   E E E E E E E E
|-----------------|-----------------|-----------------|-----------------|
|-2-2-2-2-2-2-2-2-|-----------------|-----------------|-----------------|
|-----------------|-2-2-2-2-2-2-2-2-|-2-2-2-2-2-2-2-2-|-3-3-3-3-3-3-3-3-|
|-----------------|-----------------|-----------------|-----------------|


  E E E E E E E E   E E E E E E E E   E E E E E E E E   E E E E E E E E
|-----------------|-----------------|-----------------|-----------------|
|-----------------|-----------------|-----------------|-----------------|
|-5-5-5-5-5-5-5-5-|-----------------|-----------------|-----------------|
|-----------------|-7-7-7-7-7-7-7-7-|-7-7-7-7-7-7-7-7-|-8-8-8-8-8-8-8-8-|


   E  E  E  E  E  E  E  E   E E E E E E E E
|-------------------------|-----------------|
|-------------------------|-----------------|
|-------------------------|-----------------|
|-10-10-10-10-10-10-10-10-|-0-0-0-0-0-0-0-0-|


  E E E E E E E E   E E E E E E E E
|-----------------|-----------------|
|-----------------|-----------------|
|-----------------|-----------------|
|-0-0-0-0-0-0-0-0-|-0-0-0-0-0-0-0-0-|


  E E E E E E E E   E E E E E E E E   E E E E E E E E   E E E E E E E E
|-----------------|-----------------|-----------------|-----------------|
|-----------------|-----------------|-----------------|-----------------|
|-----------------|-----------------|-----------------|-----------------|
|-0-0-0-0-0-0-0-0-|-0-0-0-0-0-0-0-0-|-0-0-0-0-0-0-0-0-|-0-0-0-0-0-0-0-0-|


  E E E E E E E E   E E E E E E E E   E E E E E E E E   E E E E E E E E
|-----------------|-----------------|-----------------|-----------------|
|-----------------|-----------------|-----------------|-----------------|
|-----------------|-----------------|-----------------|-----------------|
|-0-0-0-0-0-0-0-0-|-0-0-0-0-0-0-0-0-|-0-0-0-0-0-0-0-0-|-0-0-0-0-0-0-0-0-|


  E E E E E E E E   E E E E E E E E
|-----------------|-----------------|
|-----------------|-----------------|
|-----------------|-----------------|
|-0-0-0-0-0-0-0-0-|-0-0-0-0-0-0-0-0-|


  E E E E E E E E    E  E  E  E  E  E  E  E
|-----------------|-------------------------|
|-----------------|-------------------------|
|-----------------|-------------------------|
|-0-0-0-0-0-0-0-0-|-10-10-10-10-10-10-10-10-|


  E E E E E E E E   E E E E E E E E
|-----------------|-----------------|
|-----------------|-----------------|
|-----------------|-----------------|
|-8-8-8-8-8-8-8-8-|-0-0-0-0-0-0-0-0-|


  E E E E E E E E    E  E  E  E  E  E  E  E
|-----------------|-------------------------|
|-----------------|-------------------------|
|-----------------|-------------------------|
|-0-0-0-0-0-0-0-0-|-10-10-10-10-10-10-10-10-|


  E E E E E E E E   E E E E E E E E   E E E E E E E E   E E E E E E E E
|-----------------|-----------------|-----------------|-----------------|
|-----------------|-----------------|-----------------|-----------------|
|-----------------|-7-7-5-5---------|-----------------|-5-5-5-5-5-5-5-5-|
|-8-8-8-8-8-8-8-8-|---------7-7-5-5-|-0-0-0-0-0-0-0-0-|-----------------|


  E E E E E E E E   E E E E E E E E   E E E E E E E E   E E E E E E E E
|-----------------|-----------------|-----------------|-----------------|
|-----------------|-----------------|-----------------|-----------------|
|-7-7-7-7-7-7-7-7-|-7-7-5-5---------|-----------------|-5-5-5-5-5-5-5-5-|
|-----------------|---------7-7-5-5-|-0-0-0-0-0-0-0-0-|-----------------|


  E E E E E E E E   E E E E E E E E   E E E E E E E E   E E E E E E E E
|-----------------|-----------------|-----------------|-----------------|
|-----------------|-----------------|-----------------|-----------------|
|-7-7-7-7-7-7-7-7-|-----------------|-----------------|-----------------|
|-----------------|-7-7-7-7-7-7-7-7-|-7-7-7-7-7-7-7-7-|-8-8-8-8-8-8-8-8-|


   E  E  E  E  E  E  E  E   E E E E E E E E
|-------------------------|-----------------|
|-------------------------|-----------------|
|-------------------------|-----------------|
|-10-10-10-10-10-10-10-10-|-7-7-7-7-7-7-7-7-|


  E E E E E E E E   E E E E E E E E
|-----------------|-----------------|
|-----------------|-----------------|
|-----------------|-----------------|
|-7-7-7-7-7-7-7-7-|-8-8-8-8-8-8-8-8-|


   E  E  E  E  E  E  E  E   E E E E E E E E
|-------------------------|-----------------|
|-------------------------|-----------------|
|-------------------------|-----------------|
|-10-10-10-10-10-10-10-10-|-0-0-0-0-0-0-0-0-|


  E E E E E E E E   E E E E E E E E
|-----------------|-----------------|
|-----------------|-----------------|
|-----------------|-----------------|
|-0-0-0-0-0-0-0-0-|-0-0-0-0-0-0-0-0-|


  E E E E E E E E   E E E E E E E E   E E E E E E E E   E E E E E E E E
|-----------------|-----------------|-----------------|-----------------|
|-----------------|-----------------|-----------------|-----------------|
|-----------------|-----------------|-----------------|-----------------|
|-0-0-0-0-0-0-0-0-|-0-0-0-0-0-0-0-0-|-0-0-0-0-0-0-0-0-|-0-0-0-0-0-0-0-0-|


  E E E E E E E E   E E E E E E E E   E E E E E E E E   E E E E E E E E
|-----------------|-----------------|-----------------|-----------------|
|-----------------|-----------------|-----------------|-----------------|
|-----------------|-----------------|-----------------|-----------------|
|-0-0-0-0-0-0-0-0-|-0-0-0-0-0-0-0-0-|-0-0-0-0-0-0-0-0-|-0-0-0-0-0-0-0-0-|


  E E E E E E E E   E E E E E E E E   E E E E E E E E   E E E E E E E E
|-----------------|-----------------|-----------------|-----------------|
|-----------------|-----------------|-----------------|-----------------|
|-----------------|-----------------|-----------------|-----------------|
|-0-0-0-0-0-0-0-0-|-0-0-0-0-0-0-0-0-|-0-0-0-0-0-0-0-0-|-0-0-0-0-0-0-0-0-|


  E E E E E E E E   E E E E E E E E
|-----------------|-----------------|
|-----------------|-----------------|
|-----------------|-----------------|
|-0-0-0-0-0-0-0-0-|-8-8-8-8-8-8-8-8-|


   E  E  E  E  E  E  E  E   E E E E E E E E
|-------------------------|-----------------|
|-------------------------|-----------------|
|-------------------------|-----------------|
|-10-10-10-10-10-10-10-10-|-0-0-0-0-0-0-0-0-|


  E E E E E E E E   E E E E E E E E   E E E E E E E E   E E E E E E E E
|-----------------|-----------------|-----------------|-----------------|
|-----------------|-----------------|-----------------|-----------------|
|-----------------|-----------------|-----------------|-----------------|
|-0-0-0-0-0-0-0-0-|-0-0-0-0-0-0-0-0-|-0-0-0-0-0-0-0-0-|-0-0-0-0-0-0-0-0-|


  E E E E E E E E   E E E E E E E E   E E E E E E E E   E E E E E E E E
|-----------------|-----------------|-----------------|-----------------|
|-----------------|-----------------|-----------------|-----------------|
|-----------------|-----------------|-----------------|-----------------|
|-0-0-0-0-0-0-0-0-|-0-0-0-0-0-0-0-0-|-0-0-0-0-0-0-0-0-|-8-8-8-8-8-8-8-8-|


   E  E  E  E  E  E  E  E   E E E E E E E E
|-------------------------|-----------------|
|-------------------------|-----------------|
|-------------------------|-----------------|
|-10-10-10-10-10-10-10-10-|-8-8-8-8-8-8-8-8-|


   E  E  E  E  E  E  E  E   E E E E E E E E
|-------------------------|-----------------|
|-------------------------|-----------------|
|-------------------------|-----------------|
|-10-10-10-10-10-10-10-10-|-0-0-0-0-0-0-0-0-|


  E E E E E E E E
|--------------------*|
|--------------------*|
|--------------------*|
|-0-0-0-0-0-0-0-0----*|



Duration Legend
---------------
W - whole; H - half; Q - quarter; E - 8th; S - 16th; T - 32nd; X - 64th; a - acciaccatura
+ - note tied to previous; . - note dotted; .. - note double dotted
Uncapitalized letters represent notes that are staccato (1/2 duration)
Irregular groupings are notated above the duration line
Duration letters will always appear directly above the note/fret number it represents the
duration for.  Duration letters with no fret number below them represent rests.  Multi-
bar rests are notated in the form Wxn, where n is the number of bars to rest for.  Low
melody durations appear below the staff

Tablature Legend
----------------
 h   - hammer-on
 p   - pull-off
 b   - bend
 pb  - pre-bend
 r   - bend release (if no number after the r, then release immediately)
 /\  - slide into or out of (from/to "nowhere")
 s   - legato slide
 S   - shift slide
 - natural harmonic
[n]  - artificial harmonic
n(n) - tapped harmonic
 ~   - vibrato
 tr  - trill
 T   - tap
 TP  - trem. picking
 PM  - palm muting
\n/  - tremolo bar dip; n = amount to dip
 \n  - tremolo bar down
 n/  - tremolo bar up
/n\  - tremolo bar inverted dip
 =   - hold bend; also acts as connecting device for hammers/pulls
 <> - volume swell (louder/softer)
 x   - on rhythm slash represents muted slash
 o   - on rhythm slash represents single note slash

Misc Legend
-----------
 |  - bar
||  - double bar
||o - repeat start
o|| - repeat end
*|  - double bar (ending)
 :  - bar (freetime)
 $  - Segno
 &  - Coda
Tempo markers -  = BPM(8/16=s8/s16), where s8 = swing 8ths, s16 = swing 16ths





Comments


Popular Zz Top tabs & chords
Cheap Sunglasses Bass Tabs
Legs Bass Tabs
Jesus Just Left Chicago Chords
Tush Chords
Sharp Dressed Man Drum Tabs
Poke Chop Sandwich Tabs
Shiek Tabs
Stages 1 Tabs
Sure Got Cold After The Rain Fell Tabs
Waitin For The Bus Tabs


Song lyrics



↑ Back to top | Tablatures and chords are parodies/interpretations of the original songs. You may use it for private study, scholarship, research or language learning purposes only
© 2014 AZChords.com Contact us | Privacy policy | DMCA | Add/correct tabs | Request tabs | Top 50 tabs