» » »

Zz Top, Beer Drinkers Hell Raisers Bass tabs (ver.1)

Artists:  A B C D E F G H I J K L M N O P Q R S T U V W X Y Z # 

Beer Drinkers Hell Raisers Bass tabs (ver.1)

Zz Top Tabs
Rating:
5/5 (1 vote)
Beer Drinkers Hell Raisers lessons Tabs too difficult? Try these video lessons and learn fast
                BEER DRINKERS AND HELL RAISERS – ZZ TOP

Tuning: Standard

Intro
G|-----------------------------35-------------------------------------|
D|----------------------3h5-3h5---------------------------------------|
A|-------------------35-----------------------------------------------|
E|333333333-333333333-------------3-----------------------------------|

Verse 1 
If You See Me Walking Down The Line

Verse 2
The crowd gets loud when the band gets right, 
 
Verse 3
The joint was jumpin' like a cat on hot tin
 
G|--------------------------------------------------------------------|
D|------------------------------5-3-----------------------------------|
A|--------------------------------------------------------------------|
E|333333333—33333333—33333333-----------------------------------------|

Chorus 1, 2, and 3
Beer Drinkers and Hell Raisers Yeah

G|-----------------------------------------------------------35-------|
D|----------------------------------------------------3h5-3h5---------|
A|3333—3333--------------5555--5555--3333--3333-----35----------------|
E|-----------3333--3333-------------------------3333------------3-----|

Solo  Just a repeat of the verse and the chorus.  I just ad lib throughout this entire part.  

Listen to the song to get the timing correct.  I ad lib a lot during the song to spice it up a little.
            

comments powered by Disqus
↑ Back to top | Zz Top Bass for Beer Drinkers Hell Raisers. Lyrics for acoustic guitar and electric guitar. Tablatures and chords are parodies/interpretations of the original songs. You may use it for private study, scholarship, research or language learning purposes only