>
 >
Beer Drinkers And Hell Raisers

Beer Drinkers And Hell Raisers Bass Tabs

Zz Top - Beer Drinkers And Hell Raisers chords, tabs, tablatures, lyrics

Guitar lessons | Add/correct | Request | Top 50 tabs Artists:  A B C D E F G H I J K L M N O P Q R S T U V W X Y Z 0-9

Beer Drinkers And Hell Raisers Bass Tabs – Zz Top

CD, Sheet music, Poster

Do you like Beer Drinkers And Hell Raisers? Share with your friends now
Bass Tabs
BEER DRINKERS AND HELL RAISERS  ZZ TOP

Tuning: Standard

Intro
G|-----------------------------35-------------------------------------|
D|----------------------3h5-3h5---------------------------------------|
A|-------------------35-----------------------------------------------|
E|333333333-333333333-------------3-----------------------------------|

Verse 1 
If You See Me Walking Down The Line

Verse 2
The crowd gets loud when the band gets right, 
 
Verse 3
The joint was jumpin' like a cat on hot tin
 
G|--------------------------------------------------------------------|
D|------------------------------5-3-----------------------------------|
A|--------------------------------------------------------------------|
E|3333333333333333333333333-----------------------------------------|

Chorus 1, 2, and 3
Beer Drinkers and Hell Raisers Yeah

G|-----------------------------------------------------------35-------|
D|----------------------------------------------------3h5-3h5---------|
A|33333333--------------5555--5555--3333--3333-----35----------------|
E|-----------3333--3333-------------------------3333------------3-----|

Solo  Just a repeat of the verse and the chorus.  I just ad lib throughout this entire part.  

Listen to the song to get the timing correct.  I ad lib a lot during the song to spice it up a little.





Comments


Popular Zz Top tabs & chords
La Grange Bass Tabs
A Fool For Your Stockings 1 Chords
Gimme All Your Lovin Drum Tabs
Legs Drum Tabs
Pin Cushion Tabs
Shiek Tabs
Stages Tabs
Tush 5 Tabs
A Fool For Your Stockings Ukulele
Chartruse Ukulele


Song lyrics



↑ Back to top | Tablatures and chords are parodies/interpretations of the original songs. You may use it for private study, scholarship, research or language learning purposes only
© 2014 AZChords.com Contact us | Privacy policy | DMCA | Add/correct tabs | Request tabs | Top 50 tabs