» » »

Running Is Pointless Tabs (ver.1)

Artists:  A B C D E F G H I J K L M N O P Q R S T U V W X Y Z # 

Running Is Pointless Tabs (ver.1)

Zymurgy
Rating:
0/5 (0 votes)

Hard to play? Try these video lessons and learn fast.
                
intro 1
(fast) x25      x1   all of this 4 times, then
d--9---    d-----
a--7---    a--5--
E------    E--3--

intro 2
strum for 8 sec, then      all 2 times
d-----               d-----
a--2--		             a--5--
E--0--		             E--3--

Verse 1 and 2
d-----------------------------------------
a--2-2-xxxx--2-2-xxxx---7-7-xxxx--7-7-xxxx
E--0-0-xxxx--0-0-xxxx---5-5-xxxx--5-5-xxxx

d-----------------------5--5--5--5--4-4--    all x 4
a--5-5-xxxx--5-5-xxxx---3--3--3--3--2-2--
E--3-3-xxxx--3-3-xxxx--------------------

Chorus
d--2222--5555--7777777--5--
a--2222--5555--7777777--5--    x4
E--0000--3333--5555555--3--

bridge  (slow)
d--9----------------------
a--7-----5-----7-----3----   x4
E--------3-----5-----1----


ORDER
intro 1
intro 2
verse 1
chorus
verse 2
chorus
bridge
intro 1
chorus
intro 2
            
Hard to play? Try these video lessons and learn fast. | Correct




comments powered by Disqus
↑ Back to top | Tablatures and chords are parodies/interpretations of the original songs. You may use it for private study, scholarship, research or language learning purposes only