» » »

Knocked Up Tabs (ver.1)

Artists:  A B C D E F G H I J K L M N O P Q R S T U V W X Y Z # 

Knocked Up Tabs (ver.1)

Zymurgy
Rating:
0/5 (0 votes)

Hard to play? Try these video lessons and learn fast.
                HERE IT IS THE EAST BAY'S FINEST UNDERGROUND
INTRO
E--------------------------------------------------------------------------
B--------------------------------------------------------------------------
G--------------------------------------------------------------------------
D--------------------------------------------------------------------------
A--------------------------------------------------------------------------
E-0-0-5-6-0-0-5-6-0-0-5-6-0-0-5-6-0-0-5-6-0-0-5-6-0-1-0-1-0-1-0-1-0-1------
 AHAHAHAHH!..............
CHORUS

E-------------------------------------------------------------------------
B-------------------------------------------------------------------------
G-------------------------------------------------------------------------
D-0-0-3/4-0-0-3/4-0-0-3/4-0-0-3/4-0-0-3/4-0-0-3/4-0-0-3/4-0-0-3/4---------
A-0-0-3/4-0-0-3/4-0-0-3/4-0-0-3/4-0-0-3/4-0-0-3/4-0-0-3/4-0-0-3/4---------
E-0-0-5/6-0-0-5/6-0-0-5/6-0-0-5/6-0-0-5/6-0-0-5/6-0-0-5/6-0-0-5/6---------
        KNOCKIN......................

THERE YOU GO THE EAST BAY UNDERGROUND ENJOY
            
Hard to play? Try these video lessons and learn fast. | Correct




comments powered by Disqus
↑ Back to top | Tablatures and chords are parodies/interpretations of the original songs. You may use it for private study, scholarship, research or language learning purposes only