» » »

Endless Future Tabs (ver.2)

Artists:  A B C D E F G H I J K L M N O P Q R S T U V W X Y Z # 

Endless Future Tabs (ver.2)

Zymurgy
Rating:
0/5 (0 votes)

Hard to play? Try these video lessons and learn fast.
                

Intro is bass	    x4	    Gtr comes in after bass twice	      x2
g---------------------------------   e---12--------------------------
d---------------------------------   b------------12-------10--------
a--7------------------------------   g----------------------------9--
E----7--5--7--3--5--2--3--0-------   d-------------------------------

chorus(no singing)
bass			       x4		                  Gtr			          x4
g---------------------------------	 g-----------------------------
d---------------------------------	 d-9---------------------------
a--7------------------------------	 a-7-9--7--9--5--7--4--5--2----
E----7--5--7--3--5--2--3--0-------   E---7--5--7--3--5--2--3--0----

verse 1 and 2
Bass		x4       gtr comes in after bass 3 times
g-----------------------------------------		 
d-----------------------------------------
a--7------------------7--------------5----
E------7--5--0-------------7--5--7-----7--	

P.M.   x9
d--9--
E--7--

break down		x4
d--9-----------------
a--7--5--7--9--7--5--
e--0--3--5--7--5--3--

big pause then the chorus

outro is bass
g-----------------------  ---------------------------
d-----------------------  ---------------------------	
a--7-7--------------7---  ---7-7---------------------
E--------7-7--5-5-------  --------7-7--5-5--0--------



order
intro x4
chorus(no singing) x4
verse 1 x4
chorus   x4
verse 2 x4
breakdown x4
chorus x4
            
Hard to play? Try these video lessons and learn fast. | Correct




comments powered by Disqus
↑ Back to top | Tablatures and chords are parodies/interpretations of the original songs. You may use it for private study, scholarship, research or language learning purposes only