» » »

Zymurgy, A Life Less Ordinary Tabs (ver.1)

Artists:  A B C D E F G H I J K L M N O P Q R S T U V W X Y Z # 

A Life Less Ordinary Tabs (ver.1)

Zymurgy Tabs
Rating:
0/5 (0 votes)
A Life Less Ordinary lessons Tabs too difficult? Try these video lessons and learn fast
                GUITARIST:KYLE HAGAN(BASS PLAYER SITTING IN)

E-----------------------------------------------------------------------------
B---------------CHORUS----------------------------------------------------------
G-------------------------------------------------------------------------------
D-16-16-16-16-16-16-16-16-16-16-16-16-16-16-16-16-16-16-16-16-11-11-11-11-11-11-
A-14-14-14-14-14-14-14-14-14-14-14-14-14-14-14-14-14-14-14-14-11-11-11-11-11-11-
E-12-12-12-12-12-12-12-12-12-12-11-11-11-11-11-11-11-11-11-11--9--9--9--9--9--9

E------------------------------------------------------------------------------
B-----------------------------------------------------------------------------
G-----------------------------------------------------------------------------
D-11-11-11-11-11-11-11-11-11-11-12-12-12-12-12-12-12--------------------------
A-11-11-11-11-11-11-11-11-11-11-12-12-12-12-12-12-12--------------------------
E--9--9--9--9-11-11-11-11-11-11-12-12-12-12-12-12-12--------------------------

E----------------------------------------------------------------------------
B---------------VERSE---------------------------------------------------------
G-----------------------------------------------------------------------------
D----------16--------------16-----------11-------------11----------12---------
A------14------------14------------11-------------11------------12------------
E--12----------11---------------9------------11------------12-----------------

E----------------------------------------------------------------------------
B----BREAK DOWN-------------------------------------------------------------
G----------------------------------------------------------------------------
D-------4-----------5----------5---------7---------------------------------
A----2----------3----------5--------7----------------------------------------
E--0--------0----------3--------5---------------------------------------------

ORDER
CHORUS
VERSEX2
CHORUSX2
VERSX3
BREAKDOWN
CHORUS
            
Submit corrections

comments powered by Disqus
↑ Back to top | Zymurgy Tabs for A Life Less Ordinary. Lyrics for acoustic guitar and electric guitar. Tablatures and chords are parodies/interpretations of the original songs. You may use it for private study, scholarship, research or language learning purposes only