» » »

Zymurgy, 1 Way Out Tabs (ver.1)

Artists:  A B C D E F G H I J K L M N O P Q R S T U V W X Y Z # 

1 Way Out Tabs (ver.1)

Zymurgy Tabs
Rating:
0/5 (0 votes)
1 Way Out lessons Tabs too difficult? Try these video lessons and learn fast
                GUITARIST:BROOKS KNUDSEN

INTRO
E----16----17----16----17----13----12--16----17----13----12--------------------
B----15----16----15----16----12----11--16----12----11---------------------------
G-------------------------------------------------------------------------------
D-------------------------------------------------------------------------------
A-------------------------------------0---------------------0-0-0-0-0-0---------
E-------------------------------------0---------------------0-0-0-0-0-0---------

CHORUS
E----------------------------------------------------------------------------
B---------------------------------10-9----8----------------------------------
G-----------------------------7-10----------10-7-----------------------------
D-0-0-0-0-0-0--7-7-7-7-7-7-7-------------------------------------------------
A-0-0-0-0-0-0--7-7-7-7-7-7-7-------------------------------------------------
E-0-0-0-0-0-0--0-0-0-0-0-0---------------------------------------------------

VERSE

E----------------------------------------------------------------------------------
B-----------------------------------------------------------------------------------
G------------------8---------------------------------------------------------------
D-7-7-7-7-7-7-7-7--8--8------------------------------------------------------------
A-7-7-7-7-7-7-7-7-----8---8-------------------------------------------------------
E-7-7-7-7-7-7-7-7---------8--------------------------------------------------------

FREAK OUT PART HEAVY DISTORTION
E--------------------------------------------------------------------------------
B--------------------------------------------------------------------------------
G-------------------------------8------------------------------------------------
D-7-X-X-X-X-7-X-X-X-X-7-X-X-X-X-8--8--7-----------------------------------------
A-7-X-X-X-X-7-X-X-X-X-7-X-X-X-X----8--7------------------------------------------
E-7-X-X-X-X-7-X-X-X-X-7-X-X-X-X-------7------------------------------------------
            
Submit corrections

comments powered by Disqus
↑ Back to top | Zymurgy Tabs for 1 Way Out. Lyrics for acoustic guitar and electric guitar. Tablatures and chords are parodies/interpretations of the original songs. You may use it for private study, scholarship, research or language learning purposes only