» » »

Zyklon, The Prophetic Method Tabs (ver.1)

Artists:  A B C D E F G H I J K L M N O P Q R S T U V W X Y Z # 

The Prophetic Method Tabs (ver.1)

Zyklon Tabs
Rating:
4/5 (1 vote)
The Prophetic Method lessons Tabs too difficult? Try these video lessons and learn fast
                Zyklon

Tuning: D Standard (DGCFAd)


4/4

Intro
| SSSSSSSSEESSSS|SSSSEEEEEE|SSSSSSSSEESSSS|SSSSSSSSEEEE | x6
|---------------|----------|--------------|-------------|
|o--------------|----------|--------------|------------o|
|---------------|----------|--------------|-------------|
|---------------|------56--|--------------|-------------|
|o--------78----|----78--78|--------78----|---------888o|
|-00000000--0000|0000------|00000000--0000|000000000666-|

          Verse I
|q q q Q | QSSSSEESSSS|EESSSSS E.S E.|QSSSSEESSSS|EESSSSS E.Q | x4
|--------|------------|--------------|-----------|------------|
|--------|o-----------|--------------|-----------|-----------o|
|--------|------------|--------------|-----------|------------|
|--------|------------|--------------|-----------|------------|
|2-2-2---|o-----------|23------------|-----------|23----5h6-6o|
|0-0-0-6/|-00000540000|--00005p4-5p4-|00000540000|--0000------|

 Chorus I
| SSSSSSSSEESSSS|SSSSEEEEEE|SSSSSSSSEESSSS|SSSSSSSSEEEE | x2
|---------------|----------|--------------|-------------|
|o--------------|----------|--------------|------------o|
|---------------|----------|--------------|-------------|
|---------------|------56--|--------------|-------------|
|o--------78----|----78--78|--------78----|---------888o|
|-00000000--0000|0000------|00000000--0000|000000000666-|

 Verse II
| QSSSSEESSSS|EESSSSS E.S E.|QSSSSEESSSS|EESSSSS E.Q | x2
|------------|--------------|-----------|------------|
|o-----------|--------------|-----------|-----------o|
|------------|--------------|-----------|------------|
|------------|--------------|-----------|------------|
|o-----------|23------------|-----------|23----5h6-6o|
|-00000540000|--00005p4-5p4-|00000540000|--0000------|

 Bridge
| ESSEEEEEE|EEEEE EE E|ESSEEEEEE|EEEES SQ | x2
|----------|----------|---------|---------|
|o---------|----------|---------|--------o|
|----------|----------|---------|---------|
|----------|45--------|---------|45--7/88-|
|o-----76--|23--7\67\6|-----76--|23--5/66o|
|-000005400|--005\45\4|000005400|-000-----|

| EEH Q|+Q H Q|ESSEEEEEE|EEEEEEEE | x2
|------|------|---------|---------|
|o-----|------|---------|--------o|
|------|------|---------|---------|
|------|------|---------|----56---|
|o-----|------|-----78--|-78---78o|
|-005-4|(4)1-4|00000--00|0--0-----|

 Verse III/Solo
| SSSSSSSSEESSSS|SSSSEEEEEE|SSSSSSSSEESSSS|SSSSSSSSEEEE | x4
|---------------|----------|--------------|-------------|
|o--------------|----------|--------------|------------o|
|---------------|----------|--------------|-------------|
|---------------|------56--|--------------|-------------|
|o--------78----|----78--78|--------78----|---------888o|
|-00000000--0000|0000------|00000000--0000|000000000666-|

| ESSEEEEEE|EEEEE EE E|ESSEEEEEE|EEEES SQ | x4
|----------|----------|---------|---------|
|o---------|----------|---------|--------o|
|----------|----------|---------|---------|
|----------|45--------|---------|45--7/88-|
|o-----76--|23--7\67\6|-----76--|23--5/66o|
|-000005400|--005\45\4|000005400|-000-----|

 Interlude
|EEEEEEEE|EEEEEEEE|EEEEEEEE|W         |
|--------|--------|--------|----------|
|--------|--------|--------|----------|
|--------|--------|--------|----------|
|--------|--------|--------|----------|
|--------|--------|--------|----------|
|00000000|00000000|00000000|13\\\\\\\\|
|------------PM------------|TP

 Verse IV
| EEEEQ Q |EEE  E Q Q|EEEEQ Q |EEQ H   |
|---------|----------|--------|--------|
|o--------|----------|--------|--------|
|-----9-9-|--9/10\9-5|----9-9-|--5/8---|
|-----9-9-|--9/10\9-5|----9-9-|--5/6---|
|o----7-7-|--7-/8\7-3|----7-7-|--3/6---|
|-0000----|00--------|0000----|00------|

|EEEEQ Q |EEE  E Q Q|EEEEQ Q |EEQ H    | x2
|--------|----------|--------|---------|
|--------|----------|--------|--------o|
|----9-9-|--9/10\9-5|----9-9-|--8\5----|
|----9-9-|--9/10\9-5|----9-9-|--8\5----|
|----7-7-|--7-/8\7-3|----7-7-|--6\3---o|
|0000----|00--------|0000----|00-------|

|EEEEEEEE|EEEEEEEE|EEEEEEEE|W         |
|--------|--------|--------|----------|
|--------|--------|--------|----------|
|--------|--------|--------|----------|
|--------|--------|--------|----------|
|--------|--------|--------|----------|
|00000000|00000000|00000000|12\\\\\\\\|
|------------PM------------|TP

| EEEEQ Q |EEE  E Q Q|EEEEQ Q |EEQ H   |
|---------|----------|--------|--------|
|o--------|----------|--------|--------|
|-----9-9-|--9/10\9-5|----9-9-|--5/8---|
|-----9-9-|--9/10\9-5|----9-9-|--5/6---|
|o----7-7-|--7-/8\7-3|----7-7-|--3/6---|
|-0000----|00--------|0000----|00------|

|EEEEQ Q |EEE  E Q Q|EEEEQ Q |EEQ H    | x2
|--------|----------|--------|---------|
|--------|----------|--------|--------o|
|----9-9-|--9/10\9-5|----9-9-|--8\5----|
|----9-9-|--9/10\9-5|----9-9-|--8\5----|
|----7-7-|--7-/8\7-3|----7-7-|--6\3---o|
|0000----|00--------|0000----|00-------|

Outro
|SSSSSSSSEESSSS|SSSSEEEEEE|SSSSSSSSEESSSS|SSSSSSSSEEEE|q q q Qr*|
|--------------|----------|--------------|------------|--------*|
|--------------|----------|--------------|------------|--------*|
|--------------|----------|--------------|------------|--------*|
|--------------|------56--|--------------|------------|--------*|
|--------78----|----78--78|--------78----|---------888|2-2-2---*|
|00000000--0000|0000------|00000000--0000|000000000666|0-0-0---*|



Duration Legend
---------------
W - whole; H - half; Q - quarter; E - 8th; S - 16th; T - 32nd; X - 64th; a - acciaccatura
+ - note tied to previous; . - note dotted; .. - note double dotted
Uncapitalized letters represent notes that are staccato (1/2 duration)
Irregular groupings are notated above the duration line
Duration letters will always appear directly above the note/fret number it represents the
duration for.  Duration letters with no fret number below them represent rests.  Multi-
bar rests are notated in the form Wxn, where n is the number of bars to rest for.  Low
melody durations appear below the staff

Tablature Legend
----------------
 h   - hammer-on
 p   - pull-off
 b   - bend
 pb  - pre-bend
 r   - bend release (if no number after the r, then release immediately)
 /\  - slide into or out of (from/to "nowhere")
 s   - legato slide
 S   - shift slide
  - natural harmonic
[n]  - artificial harmonic
n(n) - tapped harmonic
 ~   - vibrato
 tr  - trill
 T   - tap
 TP  - trem. picking
 PM  - palm muting
\n/  - tremolo bar dip; n = amount to dip
 \n  - tremolo bar down
 n/  - tremolo bar up
/n\  - tremolo bar inverted dip
 =   - hold bend; also acts as connecting device for hammers/pulls
 <>  - volume swell (louder/softer)
 x   - on rhythm slash represents muted slash
 o   - on rhythm slash represents single note slash

Misc Legend
-----------
 |  - bar
||  - doublen bar
||o - repeat start
o|| - repeat end
 x? - repeat number of times
*|  - double bar (ending)
 :  - bar (freetime)
 $  - Segno
 &  - Coda
Tempo markers -  = BPM(8/16=s8/s16), where s8 = swing 8ths, s16 = swing 16ths
            

comments powered by Disqus
↑ Back to top | Zyklon Tabs for The Prophetic Method. Lyrics for acoustic guitar and electric guitar. Tablatures and chords are parodies/interpretations of the original songs. You may use it for private study, scholarship, research or language learning purposes only