>
 >
Subtle Manipulation

Subtle Manipulation Guitar Tabs

Zyklon - Subtle Manipulation chords, tabs, tablatures, lyrics

Guitar lessons | Add/correct | Request | Top 50 tabs Artists:  A B C D E F G H I J K L M N O P Q R S T U V W X Y Z 0-9

Subtle Manipulation Guitar Tabs – Zyklon

CD, Sheet music, Poster

Do you like Subtle Manipulation? Share with your friends now
Tabs
Tuning: D G C F A D

Riff A1:
|Gtr1
|------------------|-------------------|------------------|
|------------------|-------------------|------------------|
|------------------|-------------------|------------------|
|---.--------------|-.------.----------|------.------.----|
|-2-2--------------|-2--3-3-2----------|------3--5-5-2----|
|-0-0--------------|-0--1-1-0----------|------1--3-3-0----|
| . .              | .  . . .          |      .  . . .    |
|Gtr2              |                   |                  |
|------------------|-------------------|------------------|
|------------------|-------------------|------------------|
|------------------|-------------------|------------------|
|------------------|-------------------|------------------|
|-2-2-222233332222-|-2--3-3-2-22223333-|-2222-3--5-5-3333-|
|-0-0--------------|-0--1-1-0----------|------1--3-3------|
  . . ............   .  . . . ........   .... .  . . ....


|Gtr1
|------------------|----------------------|-------------------|
|------------------|----------------------|-------------------|
|------------------|----------------------|-------------------|
|-----111122221111-|-------------11112222-|-1111--------------|
|-2-2--------------|-2-2-----2-2----------|------3-3-----2323-|
|-0-0--------------|-0-0-111-0-0----------|------1-1-333-0101-|
| . . ............ | . . ... . . ........ | .... . . ... .... |
|Gtr2              |                      |                   |
|------------------|----------------------|-------------------|
|------------------|----------------------|-------------------|
|------------------|----------------------|-------------------|
|------------------|----------------------|-------------------|
|-2-2-222233332222-|-2-2-----2-2-22223333-|-2222-3-3-----2323-|
|-0-0--------------|-0-0-111-0-0----------|------1-1-333-0101-|
  . . ............   . . ... . . ........   .... . . ... ....


|Gtr1
|------------------|----------------------|-------------------|
|------------------|----------------------|-------------------|
|------------------|----------------------|-------------------|
|------------------|----------------------|-------------------|
|-2---222233332222-|-2-2-----2-2-22223333-|-2222-3-3-----3333-|
|-0----------------|-0-0-111-0-0----------|------1-1-333------|
| .   ............ | . . ... . . ........ | .... . . ... .... |
|Gtr2              |                      |                   |
|------------------|----------------------|-------------------|
|------------------|----------------------|-------------------|
|------------------|----------------------|-------------------|
|------------------|----------------------|-------------------|
|-2---222233332222-|-2-2-----2-2-22223333-|-2222-3-3-----3333-|
|-0----------------|-0-0-111-0-0----------|------1-1-333------|
  .   ............   . . ... . . ........   .... . . ... ....


|Gtr1
|------------------|----------------------|-------------------|
|------------------|----------------------|-------------------|
|------------------|----------------------|-------------------|
|------------------|----------------------|-------------------|
|-2-2-222233332222-|-2-2-----2-2-22223333-|-2222-3-3-----2323-|
|-0-0--------------|-0-0-111-0-0----------|------1-1-333-0101-|
| . . ............ | . . ... . . ........ | .... . . ... .... |
|Gtr2              |                      |                   |
|------------------|----------------------|-------------------|
|------------------|----------------------|-------------------|
|------------------|----------------------|-------------------|
|------------------|----------------------|-------------------|
|-2-2-222233332222-|-2-2-----2-2-22223333-|-2222-3-3-----2323-|
|-0-0--------------|-0-0-111-0-0----------|------1-1-333-0101-|
  . . ............   . . ... . . ........   .... . . ... ....


|Gtr1
|------------------|----------------------|-------------------|
|------------------|----------------------|-------------------|
|------------------|----------------------|-------------------|
|-----111122221111-|-------------11112222-|-1111--------------|
|-2-3--------------|-2-2-----2-2----------|------3-3-----3333-|
|-0-1--------------|-0-0-111-0-0----------|------1-1-333------|
| . . ............ | . . ... . . ........ | .... . . ... .... |
|Gtr2              |                      |                   |
|------------------|----------------------|-------------------|
|------------------|----------------------|-------------------|
|------------------|----------------------|-------------------|
|------------------|----------------------|-------------------|
|-2-3-222233332222-|-2-2-----2-2-22223333-|-2222-3-3-----3333-|
|-0-1--------------|-0-0-111-0-0----------|------1-1-333------|
  . . ............   . . ... . . ........   .... . . ... ....


|Gtr1
|------------------|----------------------|-------------------|
|------------------|----------------------|-------------------|
|------------------|----------------------|-------------------|
|-----111122221111-|-------------11112222-|-1111--------------|
|-2-2--------------|-2-2-----2-2----------|------3-3-----2323-|
|-0-0--------------|-0-0-111-0-0----------|------1-1-333-0101-|
| . . ............ | . . ... . . ........ | .... . . ... .... |
|Gtr2              |                      |                   |
|------------------|----------------------|-------------------|
|------------------|----------------------|-------------------|
|------------------|----------------------|-------------------|
|------------------|----------------------|-------------------|
|-2-2-222233332222-|-2-2-----2-2-22223333-|-2222-3-3-----2323-|
|-0-0--------------|-0-0-111-0-0----------|------1-1-333-0101-|
  . . ............   . . ... . . ........   .... . . ... ....


|Gtr1
|--------------------|
|--------------------|
|------5---4---------|
|--------------6---5-|
|-23---3---2---------|
|-01-0---0---0-4-0-3-|
| .. .   .   .   .   |
|Gtr2                |
|--------------------|
|--------------------|
|--------------------|
|--------------------|
|-23-----------------|
|-01-----------------|
  ..


Riff B1:

|Gtr1
|-7-7------6-------------|-7-7------6-------------------|
|-8-8------7-------------|-8-8------7-------------------|
|-9-9------8-8/9-9/12-11-|-9-9------8-------------------|
|-9-9------8-------------|-9-9------8-6\5------6\5------|
|-7-7------6-6/7-7/10--9-|-7-7------6------6/7------7\6-|
|-----0000---------------|-----0000---------------------|
|     ....               |     ....                     |
|Gtr2                    |                              |
|-7-7------6-------------|-7-7------6-------------------|
|-8-8------7-------------|-8-8------7-------------------|
|-9-9------8-8/9-9/12-11-|-9-9------8-9\8------9\8------|
|-9-9------8-------------|-9-9------8-----9/10-----10\9-|
|-7-7------6-6/7-7/10--9-|-7-7------6-7\6------7\6------|
|-----0000---------------|-----0000-------7/-8------8\7-|
      ....                     ....


Riff B2:

|-7-7------6-------------|
|-8-8------7-------------|
|-9-9------8-4-----------|
|-9-9------8-------------|
|-7-7------6-2-----2-----|
|-----0000------3-----2--|
      ....      .  .  .


Riff C:                                _________________
                                                   1,2,3|
|-77777777---------|-6666--------7777-|------------------|
|-88888888---------|-7777--------8888-|------------------|
|-99999999---------|-8888--------9999-|------------------|
|-99999999---------|-8888--------9999-|------------------|
|-77777777---------|-6666--------7777-|--------2---2-----|
|---------00000000-|-----00000000-----|-000000---3---2-0-|

 _______________
               4|
|----------------|
|----------------|
|----------------|
|--------4---4---|
|--------2-5-2-4-|
|-000000---3---2-|
           . . .


Rhy. Fill:

|------------------|------------------|
|------------------|------------------|
|------------------|------------------|
|------------------|------------------|
|-2----------------|------------------|
|-0----------------|----------0-0-0-0-|
                              . . . .


Riff D1:          _________________  ________________
                              1,2,3|                4|
|----------------|------------------|-----------------|
|-5--------------|------------------|-----------------|
|-3--------------|------------------|-----------------|
|-2--------------|------------------|-----------------|
|--------2-------|-1----------------|-1---------------|
|----0-0---3-0-0-|---2-0-0-0-0-0230-|---2-0-0-0-0-2h3-|
     . .     . .       . . . . ....       . . . .


Riff D2:          _________________  ________________
                              1,2,3|                4|
|----------------|------------------|-----------------|
|-5--------------|------------------|-----------------|
|-3--------------|------------------|-----------------|
|-2------2-------|-1----------------|-1---------------|
|--------2-------|-1----------------|-1---------------|
|----0-0---3-0-0-|---2-0-0-0-0-0230-|---2-0-0-0-0-2h3-|
     . .     . .       . . . . ....       . . . .


Riff D3:

|-----------------|------------------|-----------------|
|-----------------|------------------|-----------------|
|-----------------|------------------|-----------------|
|---------2-------|------------------|-2---------3-----|
|-----------1-----|-2----------------|-1-------2-------|
|-0-0-0-0-----0-0-|---3-0-0-0-0-0230-|-0---0-0-----0-0-|
  . . . .     . .       . . . . ....       . .     . .

|------------------|-----------------|------------------|
|------------------|-----------------|------------------|
|------------------|-----------------|------------------|
|-3----------------|-2-------2-------|------------------|
|---2--------------|-1---------1-----|-2----------------|
|-----0-0-0-0-0230-|-0---0-0-----0-0-|---3-0-0-0-0-0230-|
      . . . . ....       . .     . .       . . . . ....

|-----------------|------------------|
|-----------------|------------------|
|-----------------|------------------|
|-2---------3-----|-3----------------|
|-1-------2-------|---2--------------|
|-0---0-0-----0-0-|-----0-0-0-0-0230-|
      . .     . .       . . . . ....


Solo: Listen to the CD for rhythm and timing.

                /rake\
|--------------|---11--14--11-|-15----------|-14-----------|
|--------------|--x-----------|-------------|--------------|
|-/12---11~~~~-|-x------------|-------------|--------------|
|--------------|--------------|-------------|--------------|
|--------------|--------------|-------------|--------------|
|--------------|--------------|-------------|--------------|


|--------------------------|-12h15p12h14~~~~-1215-|
|-------------------121316-|----------------------|
|-------------111214-------|----------------------|
|-------101314-------------|----------------------|
|-101214-------------------|----------------------|
|--------------------------|----------------------|


|-18-17---15-14---12-|-----------------------|
|--------------------|-16---13-12------------|
|--------------------|--------------12-------|
|--------------------|-----------------14~~~-|
|--------------------|-----------------------|
|--------------------|-----------------------|


Riff A2:

|Gtr1
|------------------|----------------------|-------------------|
|------------------|----------------------|-------------------|
|------------------|----------------------|-------------------|
|------------------|----------------------|-------------------|
|-2-2-222233332222-|-2-2-----2-2-22223333-|-2222-3-3-----3333-|
|-0-0--------------|-0-0-111-0-0----------|------1-1-333------|
| . . ............ | . . ... . . ........ | .... . . ... .... |
|Gtr2              |                      |                   |
|------------------|----------------------|-------------------|
|------------------|----------------------|-------------------|
|------------------|----------------------|-------------------|
|------------------|----------------------|-------------------|
|-2-2-222233332222-|-2-2-----2-2-22223333-|-2222-3-3-----3333-|
|-0-0--------------|-0-0-111-0-0----------|------1-1-333------|
  . . ............   . . ... . . ........   .... . . ... ....


|Gtr1
|------------------|----------------------|-------------------|
|------------------|----------------------|-------------------|
|------------------|----------------------|-------------------|
|------------------|----------------------|-------------------|
|-2-2-222233332222-|-2-2-----2-2-22223333-|-2222-3-3-----2323-|
|-0-0--------------|-0-0-111-0-0----------|------1-1-333-0101-|
| . . ............ | . . ... . . ........ | .... . . ... .... |
|Gtr2              |                      |                   |
|------------------|----------------------|-------------------|
|------------------|----------------------|-------------------|
|------------------|----------------------|-------------------|
|------------------|----------------------|-------------------|
|-2-2-222233332222-|-2-2-----2-2-22223333-|-2222-3-3-----2323-|
|-0-0--------------|-0-0-111-0-0----------|------1-1-333-0101-|
  . . ............   . . ... . . ........   .... . . ... ....


|Gtr1
|------------------|----------------------|-------------------|
|------------------|----------------------|-------------------|
|------------------|----------------------|-------------------|
|-----111122221111-|-------------11112222-|-1111--------------|
|-2-2--------------|-2-2-----2-2----------|------3-3-----3333-|
|-0-0--------------|-0-0-111-0-0----------|------1-1-333------|
| . . ............ | . . ... . . ........ | .... . . ... .... |
|Gtr2              |                      |                   |
|------------------|----------------------|-------------------|
|------------------|----------------------|-------------------|
|------------------|----------------------|-------------------|
|------------------|----------------------|-------------------|
|-2-2-222233332222-|-2-2-----2-2-22223333-|-2222-3-3-----3333-|
|-0-0--------------|-0-0-111-0-0----------|------1-1-333------|
  . . ............   . . ... . . ........   .... . . ... ....


|Gtr1
|------------------|----------------------|---------------------|
|------------------|----------------------|---------------------|
|------------------|----------------------|---------------------|
|-----111122221111-|-------------11112222-|-1111----------------|
|-2-2--------------|-2-2-----2-2----------|------3-3-----232323-|
|-0-0--------------|-0-0-111-0-0----------|------1-1-333-010101-|
| . . ............ | . . ... . . ........ | .... . . ... ...... |
|Gtr2              |                      |                     |
|------------------|----------------------|---------------------|
|------------------|----------------------|---------------------|
|------------------|----------------------|---------------------|
|------------------|----------------------|---------------------|
|-2-2-222233332222-|-2-2-----2-2-22223333-|-2222-3-3-----232323-|
|-0-0--------------|-0-0-111-0-0----------|------1-1-333-010101-|
  . . ............   . . ... . . ........   .... . . ... ......


Ending:

|------------------|
|------------------|
|------------------|
|-.----------------|
|-2----------------|
|-0----------------|




Song Structure:

Riff A1
Riff B1       (x3)
Riff B2
Riff B1
Riff B2
Riff C
Riff B1
Riff B2
Riff B1
Riff B2
Riff C
Riff D1
Riff D2
Riff D3       w/Solo
Riff A2
Riff B1
Riff B2
Riff B1
Riff B2
Riff C
Ending





Comments


Popular Zyklon tabs & chords
Chaos Deathcult Bass Tabs
2000 Years Tabs
An Eclectic Manner Tabs
Chaos Deathcult Tabs
Core Solution Tabs
Deduced To Overkill Tabs
Hammer Revelation Tabs
Psyklon Aeon Tabs
The Prophetic Method Tabs
Zykloned Tabs


Song lyrics



↑ Back to top | Tablatures and chords are parodies/interpretations of the original songs. You may use it for private study, scholarship, research or language learning purposes only
© 2014 AZChords.com Contact us | Privacy policy | DMCA | Add/correct tabs | Request tabs | Top 50 tabs