» » »

Zyklon, Psyklon Aeon Tabs (ver.1)

Artists:  A B C D E F G H I J K L M N O P Q R S T U V W X Y Z # 

Psyklon Aeon Tabs (ver.1)

Zyklon Tabs
 Rating:
4.2/5 (5 votes)
Psyklon Aeon lessons Tabs too difficult? Try these video lessons and learn fast
                .  - palm mute           /  - slide up to
\  - slide down to       ~  - vibrato
h  - hammer on           b  - Bend
p  - pull off            Suffixes for bend
t  - tap                 f  - full bend    h - half bend
ph - pinched harmonic    q  - quarter bend t - tap bend
*  - see comment         ^  - Hold bend    r release bend
x  - Stuccatto           ~  - vibrato bend
,  - slight palm mute    () - ghost note, sustained note
"  - tremolo picking         - Trill

Tunning E A D G B E
                                                                               >

 RIFF 1                            (4 TIMES)   4TH TIME
|--------------------------------------------|---------------|
|--------------------------------------------|---------------|
|--------------------------------------------|---------------|
|--------------------------------------------|---------------|
|----------------7777------------------------|---------------|
|-0000-5555-0000------0000-55--1--3--0--1111-|-1--3--0--1111-|
                               .  .  .  ....   .  .  .  ....



 RIFF 2                                                     (4 TIMES)
|--------------------------------------------------------------------|
|--------------------------------------------------------------------|
|--------------------------------------------------------------------|
|--------------------------------------------------------------------|
|------77-55------88-77------77-55----77-55------5-------------------|
|-0000-------0000-------0000-------00--------000-3--1--3--1--0--1--0-|
  ....       ....       ....       ..        ...    .  .  .  .  .  .





 RIFF 3A
   NH (* GUITAR 2 W/ TREMOLO BAR)
|------------------------------------------------------------------------------|
|------------------------------------------------------------------------------|
|-(5*)~ ~ ~--------------------------------------------------------------------|
|-222222----3300------222222----33335533-222222----3300------222222----33335533|
|------------------------------------------------------------------------------|
|--------00------1100--------00-----------------00------1100--------00---------|
         ..      ....        ..                 ..      ....        ..


 RIFF 3B (W/ RIFF 3A)
|------------------------------------------------------------------------------|
|------------------------------------------------------------------------------|
|------------------------------------------------------------------------------|
|------------------------------------------------------------------------------|
|-7--7--7---55-5--33--7--7--7---55-5-55-7--7--7---55-5--33--7--7--7---55-5--55-|
|--00-00-0--33-3--11---00-00-0--33-3-33--00-00-0--33-3--11---00-00-0--33-3-33--|
   .. .. .  .. .       .. .. .           .. .. .  .. .       .. .. .



 SOLO
 RYTH PART
 GUITAR 1
|-------------------------------------|-------------------------------------|
|-------------------------------------|-------------------------------------|
|-------------------------------------|-------------------------------------|
|-22222222-55555555-------------------|-------------------------------------|
|-------------------77555555-33333333-|-------------------------------------|
|-------------------------------------|-11111111-00000000-33333333-11111111-|
|
|
|GUITAR 2 (W/ TREMOLO BAR)
|NH       NH       NH    ___
|-----/--------/--------/---\---------|
|----/--------/--------/------\-------|
|-5-/------5-/------3-/---------\-----|
|-|/-------|/-------|/------------\---|
|-------------------------------------|
|-------------------------------------|


|---------------------------------------------------------------------|
|-----------------------------10-12-13/15-13-12h13p12--12-13-15p13p12-|
|-9-11-12-9-11-9-11-9-9-11-12-----------------------------------------|
|---------------------------------------------------------------------|
|---------------------------------------------------------------------|
|---------------------------------------------------------------------|


|----------------------------------------------|
|-12-13-15p13p12-12-13-15p13p12-12-13-15p13p12-|
|----------------------------------------------|
|----------------------------------------------|
|----------------------------------------------|
|----------------------------------------------|


|----------------------------------------------------------|
|-------13p12--------13p12--------13p12--------13p12-------|
|-12-14--------12-14--------12-14--------12-14-------12-14-|
|----------------------------------------------------------|
|----------------------------------------------------------|
|----------------------------------------------------------|


|----------------------------------------------------------------------------|
|-12h15p13p12----12--12h15p13p12----12--10h13p12p10----10--10h13p12p10----10-|
|-------------14-----------------14-----------------12-----------------12----|
|----------------------------------------------------------------------------|
|----------------------------------------------------------------------------|
|----------------------------------------------------------------------------|


|----------------------12---------------------|
|-13----------13-12-13----15-13-15-13-12~ ~ ~-|
|-------12-14---------------------------------|
|---------------------------------------------|
|---------------------------------------------|
|---------------------------------------------|


|------------------------------------------------------------------------------|
|------------------------------------------------------------------------------|
|---12-15p13p12----12-15p13p12-17p15p12----12-15p13p12----12-15p13p12-17p15p12-|
|-14-------------14----------------------14-------------14---------------------|
|------------------------------------------------------------------------------|
|------------------------------------------------------------------------------|


|---------------------------------------------------------------------|
|---------------------------------------------------------------------|
|-----------------------------------------------------12h14h16-12~ ~--|
|-------------------12h14h16-12~ ~-----------12h14h16-----------------|
|----------12h14h15-----------------12h14h15--------------------------|
|-12h14h15------------------------------------------------------------|




 BOTH GUITARS (* ONLY 1ST TIME GUITAR 2 W/ TREMOLO BAR)            (2 TIMES)
|-------------------------------------|-------------------------------------|
|-------------------------------------|-------------------------------------|
|-(5*)--------------------------------|-------------------------------------|
|-22222222-55555555-------------------|-------------------------------------|
|-------------------77555555-33333333-|-------------------------------------|
|-------------------------------------|-11111111-00000000-33333333-11111111-|




 RIFF 3A
|------------------------------------------------------------------------------|
|------------------------------------------------------------------------------|
|------------------------------------------------------------------------------|
|-222222----3300------222222----33335533-222222----3300------222222----33335533|
|------------------------------------------------------------------------------|
|--------00------1100--------00-----------------00------1100--------00---------|
         ..      ....        ..                 ..      ....        ..

 RIFF 3B (W/ RIFF 3A)
|------------------------------------------------------------------------------|
|------------------------------------------------------------------------------|
|------------------------------------------------------------------------------|
|------------------------------------------------------------------------------|
|-7--7--7---55-5--33--7--7--7---55-5-55-7--7--7---55-5--33--7--7--7---55-5--55-|
|--00-00-0--33-3--11---00-00-0--33-3-33--00-00-0--33-3--11---00-00-0--33-3-33--|
   .. .. .  .. .       .. .. .           .. .. .  .. .       .. .. .



 RIFF 2                                               (4 TIMES)
|--------------------------------------------------------------|---------------|
|--------------------------------------------------------------|---------------|
|--------------------------------------------------------------|---------------|
|--------------------------------------------------------------|---------------|
|------77-55------88-77------77-55----77-55------5-------------|-5-------------|
|-0000-------0000-------0000-------00--------000-3-1-3-1-0-1-0-|-3-1-3-1-0-1-0-|
  ....       ....       ....       ..        ...   . . . . . .     . . . . . .


 BRIDGE
|-----------------------------------------|
|-----------------------------------------|
|-----------------------------------------|
|-----------------------------------------|
|-----------------------------------------|
|-00-0-00-0-00-0-00-0-00-0-11-1-11-1-11-1-|

                                (2 TIMES)
|----------------------------------------|
|----------------------------------------|
|----------------------------------------|
|----------------------------------------|
|-----------------------10p9-9p7-/-5-7p5-|
|-00-0-00-0-00-0-00-0-0------------------|


 OUTRO
|--------------------------------------|
|--------------------------------------|
|--------------------------------------|
|--------------------------------------|
|--------------------------------------|
|-0000-2222-33-22-33-22-0000-2222-3333-|

                                          (2 TIMES)
|--------------------------------------------------|
|--------------------------------------------------|
|--------------------------------------------------|
|--------------------------------------------------|
|---------------------------------10p9-9p7-/-5-7p5-|
|-0000-2222-33-22-33-22-0000-2222------------------|



 RIFF 1                            (6 TIMES)   6TH TIME
|--------------------------------------------|-----------------|
|--------------------------------------------|-----------------|
|--------------------------------------------|-----------------|
|--------------------------------------------|---------------2-|
|----------------7777------------------------|---------------2-|
|-0000-5555-0000------0000-55--1--3--0--1111-|-1--3--0--1111-0-|
                               .  .  .  ....   .  .  .  ....
            
Submit corrections

comments powered by Disqus
↑ Back to top | Zyklon Tabs for Psyklon Aeon. Lyrics for acoustic guitar and electric guitar. Tablatures and chords are parodies/interpretations of the original songs. You may use it for private study, scholarship, research or language learning purposes only