» » »

Hammer Revelation Tabs (ver.1)

Artists:  A B C D E F G H I J K L M N O P Q R S T U V W X Y Z # 

Hammer Revelation Tabs (ver.1)

Zyklon
Rating:
5/5 (1 vote)

Hard to play? Try these video lessons and learn fast.
                Zyklon - "Hammer Revelation"

Music by Zamoth and Destructhor




Note: I'm pretty sure this is accurate, it sounds right to play, 
      There are probably bits of the tab out of place, but easy 
      enough to just figure out where each part goes. I love this
      song !



Tablature Notation
------------------
..  - palm mute                 /  - slide up to
\  - slide down to              ~  - vibrato
h  - hammer on                  b  - bend
p  - pull off                   Suffixes for bend
ph - pinch harmonic             f - full bend    h - half bend
*  - see comment                r - release      t - tap bend
X  - percussion mute            ~ - vibrato bend
@  - slight palm mute           () - ghost note, sustained note
"  - tremolo pick




Tune down one whole step




Riff A (4x)
|-----------------------------------|Gtr1
|-----------------------------------|
|-----------------------------------|
|--9--7-10-10-10--9--7-10-10-10-10--|
|--7--7--7--7--7--7--7--7--7--7--7--|
|--0--0--0--0--0--0--0--0--0--0--0--|
|
|
|
|
|-----------------------------------|Gtr2
|-----------------------------------|
|--9--7-10-10-10--9--7-10-10-10-10--|
|--9--7-10-10-10--9--7-10-10-10-10--|
|--7--5--8--8--8--7--5--8/10--8--8--|
|--0--0--0--0--0--0--0--0--0--0--0--|






Riff B Intro
|-----------------------------|Gtr1
|-----------------------------|
|-----------------------------|
|--------------------8-8-8-8--|
|--------------------6-6-6-6--|
|-----------------------------|
|
|
|
|
|-----------------------------|Gtr2
|-----------------------------|
|-----------------------------|
|-------10-----------8-8-8-8--|
|--8/11--8--10"-8"---6-6-6-6--|
|-----------------------------|





Riff B.1
|-----------------------|------------------|Gtr1
|-----------------------|------------------|
|-----------------------|------------------|
|-------10--------------|----------2-2-3---|
|--8/11--8--10"9"8"-6"--|----------2-2-3---|
|-----------------------|--8/11-9--0-0-1---|
|
|
|
|
|-----------------------|------------------|Gtr2
|-----------------------|------------------|
|-----------------------|----------9-9-10--|
|-------10--------------|----------9-9-10--|
|--8/11--8--10"9"8"-6"--|----------7-7--8--|
|-----------------------|--8/11-9----------|






Riff B.2
|-----------------------|-----------------------|Gtr1&2
|-----------------------|-----------------------|
|-----------------------|-----------------------|
|-----------------------|-----------------------|
|--5/8-7--5/8-7------3--|--5/8-7--5/8-7--3-2-1--|
|----------------5/7----|-----------------------|





Riff B.3 (6x)
|------------------------|Gtr1
|------------------------|
|------9------9------10--|
|------9------9------10--|
|--5/8-7--5/8-7-------8--|
|----------------888--8--|      
|                ...
|
|
|
|------------------------|Gtr2
|------------------------|
|------9------9------10--|
|------9------9------10--|
|--5/8-7--5/8-7--777--8--|
|------------------------|
                 ...



then Riff A (1x)
then first part of Riff B.1 (4x)
then repeat the tremolo notes of Riff B.1 (3x)






Riff C.1 (2x)
|---------------------------------|Gtr1&2
|---------------------------------|
|-----8"--------------------------|
|-5"--8"--5"--6"--5"--8"--5"--4"--|
|-5"--6"--5"--6"--5"--6"--5"--4"--|
|-3"------3"--4"--3"------3"--2"--|






Riff C.2 (2x)
|----------------------------------------------------------|Gtr2
|----------------------------------------------------------|
|-------------8---------------------------8----------------|
|-----5---5---8-----5---5---6-----5---5---8-----5---4---4--|
|-----5---5---6-----5---5---6-----5---5---6-----5---4---4--|
|-333-3-3-3-3---333-3-3-3-3-4-333-3-3-3-3---333-3-2-2-2-2--|
| ...   .   .   ...   .   .   ...   .   .   ...   .   .
|
|
|
|----------------------------------------------------------|Gtr2
|----------------------------------------------------------|
|------------8---------------------------8-----------------|
|-----5------8------5------6------5------8------5---4---4--|
|-----5------6------5------6------5------6------5---4---4--|
|-333-3-3333----333-3-3333-4--333-3-3333----333-3-2-2-2-2--|
  ...   ....    ...   ....    ...   ....    ...   .   .


then play Riff C.1 (2x)







Riff D Intro
|----------|
|----------|
|--4/5-----|
|--4/5--4--|
|--2/3--4--|
|--2/3--2--|





Riff D (2x)
|---------------------------------------------------------------|Gtr1&2
|---------------------------------------------------------------|
|---------------------------------------------------------------|
|---------------------------------------------------------------|
|---------------------------------------------------------------|
|--0-000-8\7-0-000-8\1-0-000-8\7-0-000-8\1-0-000-8\7-0-000-8\1--|
   . ...     . ...     . ...     . ...     . ...     . ...



|---------------------------|Gtr1&2
|---------------------------|
|---------------------------|
|---------------------------|
|--8\7/8-7\6/7--------------|
|--------------8\7/8-7\6/7--|




|---------------------------------------------------------------|Gtr1&2
|---------------------------------------------------------------|
|---------------------------------------------------------------|
|---------------------------------------------------------------|
|---------------------------------------------------------------|
|--0-0-0-8\7-0-0-0-8\1-0-0-0-8\7-0-0-0-8\1-0-0-0-8\7-0-0-0-8\1--|
   . . .     . . .     . . .     . . .     . . .     . . .



|---------------------------|Gtr1&2
|---------------------------|
|---------------------------|
|---------------------------|
|--8\7/8-7\6/7--------------|
|--------------8\7/8-7\6/7--|


On last time this variation is played:


|-------------------------------------------|Gtr1&2
|-------------------------------------------|
|-------------------------------------------|
|-------------------------------------------|
|-------------------------------------------|
|--0-0-0-8\7-0-0-0-8\7-0-0-0-8\7-0-0-0-8\7--|




|-------------------------------------------------|Gtr1&2
|-------------------------------------------------|
|-------------------------------------------------|
|-------------------------------------------------|
|-------------------------------------------------|
|--0-0-0-11\10-0-0-0-12\11-0-0-0-13\12-0-0-0-14\--|




then play Riff C.1 (2x)







Solo
|------------------------------------------------------------------10121312"--|Gtr1
|--------------------------------------------------------1012131213-----------|
|----------99910----------------99910-9991099999999991012---------------------|
|--77777777-----777777777799910-----------------------------------------------|
|-----------------------------------------------------------------------------|
|--this-is-all-with-tremolo-picking-------------------------------------------|
|
|
|
|
|-----------------------------------------------------------------------------|Gtr2
|-----------------------------------------------------------------------------|
|-----------------------------------------------------------------------------|
|--7"-------------------------------------------------------------------------|
|--7"-------------------------------------------------------------------------|
|--5"-------------------------------------------------------------------------|





|--17"-12"-13"-12--------------14--------------------------|Gtr1
|----------------13----------16--16----------15h17---------|
|------------------12------17------12------14-----14-------|
|--------------------14--------------14-------------14-----|
|----------------------15--------------15-------------12"--|
|----------------------------------------------------------|
|
|
|
|
|----------------------------------------------------------|Gtr2
|----------------------------------------------------------|
|----------------------------------------------------------|
|---------------------------6"------------------7"---------|
|---------------------------4"------------------7"---------|
|---------------------------4"------------------5"---------|





|-------------------------------------------------------------------------------|Gtr1
|--------------14h19p14-----------15h17-----------------------14h18p14----------|
|----------------------15------15---------------------------15---------14b(17)--|
|------------------------14--14---------14--------------------------------------|
|--15"-14"-12"-------------15--------------12"--15"-14"-12"---------------------|
|-------------------------------------------------------------------------------|
|
|
|
|
|-------------------------------------------------------------------------------|Gtr2
|-------------------------------------------------------------------------------|
|-------------------------------------------------------------------------------|
|---------------------------8"--------7"------------------------------------6---|
|---------------------------6"--------7"------------------------------------4---|
|---------------------------6"--------5"------------------------------------4---|



|--some-dives-and-raises-w/bar--|Gtr1 (Gtr2 plays 2nd part of Riff D)
|-------------------------------|
|-------------------------------|
|-------------------------------|
|-------------------------------|
|-------------------------------|




then play this variation on Riff D:
|-------------------------------------------|Gtr1&2
|-------------------------------------------|
|-------------------------------------------|
|-------------------------------------------|
|-------------------------------------------|
|--0-0-0-8\7-0-0-0-8\7-0-0-0-8\7-0-0-0-8\7--|
   . . .     . . .     . . .     . . .




|-------------------------------------------------|Gtr1
|-------------------------------------------------|
|-------------------------------------------------|
|-------------------------------------------------|
|-------------------------------------------------|
|--0-0-0--8\7--0-0-0--8\7--0-0-0--8\7--0-0-0-8\7--|
|  . . .       . . .       . . .       . . .
|
|
|
|-------------------------------------------------|Gtr2
|-------------------------------------------------|
|-------------------------------------------------|
|-------------------------------------------------|
|-------------------------------------------------|
|--0-0-0-14\13-0-0-0-15\14-0-0-0-16\15-0-0-0-4\3--|
   . . .       . . .       . . .       . . .







Riff E
|---------------------------------------|Gtr1
|---------------------------------------|
|---------------------------------------|
|------------------------------5--6--5--|
|----2---2---3---3---2---2-2-4-5--6--5--|
|--0---0---0---0---0---0---0-2-3--4--3--|
|  .   .   .   .   .   .   . .
|
|
|
|---------------------------------------|Gtr2
|---------------------------------------|
|---------------------------------------|
|------------------------------5-----5--|
|----2---2---3---3---2---2-2-4-5-6ph-5--|
|--0---0---0---0---0---0---0-2-3-----3--|
   .   .   .   .   .   .   . .




|---------------------------------------|Gtr1&2
|---------------------------------------|
|---------------------------------------|
|------------------------------5--6--5--|
|----2---2---3---3---2---2-2-4-5--6--5--|
|--0---0---0---0---0---0---0-2-3--4--3--|
   .   .   .   .   .   .   . .







Riff F (Gtr2 plays some slides between notes)
|------------------------------------------|Gtr1
|------------------------------------------|
|------------------------------------------|
|------------------------------------------|
|----2-3-2-3-6--5--2-3---2-3-2-3-6--5--/8--|
|--0-------------------0-------------------|
|
|
|
|
|------------------------------------------|Gtr2
|------------------------------------------|
|------------------------------------------|
|------------9---------------5---8---------|
|--7---------------7---9-------------------|
|------------------------------------------|





|-----------------------------------------|Gtr1
|-----------------------------------------|
|-----------------------------------------|
|--------------------------------4-----4--|
|----2-3-2-3-6--5--2-3---2-3-2-3---3-3----|
|--0-------------------0------------------|
|
|
|
|
|-----------------------------------------|Gtr2
|-----------------------------------------|
|-----------------------------------------|
|---------9-------------------------------|
|--7-------------7---9-----7---6---2---6--|
|-----------------------------------------|





|------------------------------------------|Gtr1
|------------------------------------------|
|------------------------------------------|
|------------------------------------------|
|----2-3-2-3-6--5--2-3---2-3-2-3-6--5--/8--|
|--0-------------------0-------------------|
|
|
|
|
|------------------------------------------|Gtr2
|------------------------------------------|
|------------------------------------------|
|------------9---------------5---8---------|
|--7---------------7---9-------------------|
|------------------------------------------|





|-----------------------------------------|Gtr1
|-----------------------------------------|
|-----------------------------------------|
|-----------------------------------------|
|----2-3-2-3-6--5--2-3---2-3-2-3-6--4--6--|
|--0-------------------0------------------|
|
|
|
|
|-----------------------------------------|Gtr2
|-----------------------------------------|
|-----------------------------------------|
|--9--8--5---8--5------5------------------|
|------------------9------9--7---6--7--9--|
|-----------------------------------------|






then play Riff E, play this variation on the last 2 times:

|-------------------------------------------|Gtr1
|-------------------------------------------|
|------------4ph---4ph----------------------|
|----------------------------------5--6--5--|
|----2---2---------------2---2-2-4-5--6--5--|
|--0---0---0-----0-----0---0---0-2-3--4--3--|
|  .   .   .     .     .   .   . .
|
|
|
|-------------------------------------------|Gtr2
|-------------------------------------------|
|-------------------------------------------|
|----------------------------------5--6--5--|
|----2---2----3-----3----2---2-2-4-5--6--5--|
|--0---0---0-----0-----0---0---0-2-3--4--3--|
   .   .   .     .     .   .   . .





then play Riff F, very last two notes of gtr2 are changed:

|-----------------------------------------|Gtr2
|-----------------------------------------|
|-----------------------------------------|
|--9--8--5---8--5------5------------------|
|------------------9------9--7---6--3--2--|
|-----------------------------------------|
                                    *  *  these ones are changed






Riff G (variation on Riff E, with 3rd gtr)
|---------------------------------------------------|Gtr1
|---------------------------------------------------|
|----------4ph---------4ph---------4ph--------------|
|------------------------------------------5--6--5--|
|-----2-----------3-----------2--------2-4-5--6--5--|
|--0-----0-----0-----0-----0-----0-----0-2-3--4--3--|
|  .     .     .     .     .     .     . .
|
|
|
|---------------------------------------------------|Gtr2
|---------------------------------------------------|
|---------------------------------------------------|
|------------------------------------------5--6--5--|
|-----2-----2-----3-----3-----2-----2--2-4-5--6--5--|
|--0-----0-----0-----0-----0-----0-----0-2-3--4--3--|
|  .     .     .     .     .     .     . .
|
|
|
|---------------------------------------------------|Gtr3
|---------------------------------------------------|
|---------------------------------------------------|
|--------------------5------------------------------|
|--5-----------3-----------5-----------6------------|
|---------------------------------------------------|





|---------------------------------------------------|Gtr1
|---------------------------------------------------|
|----------4ph---------4ph---------4ph--------------|
|------------------------------------------5--6--5--|
|-----2-----------3-----------2--------2-4-5--6--5--|
|--0-----0-----0-----0-----0-----0-----0-2-3--4--3--|
|  .     .     .     .     .     .     . .
|
|
|
|---------------------------------------------------|Gtr2
|---------------------------------------------------|
|---------------------------------------------------|
|------------------------------------------5--6--5--|
|-----2-----2-----3-----3-----2-----2--2-4-5--6--5--|
|--0-----0-----0-----0-----0-----0-----0-2-3--4--3--|
|  .     .     .     .     .     .     . .
|
|
|
|---------------------------------------------------|Gtr3
|---------------------------------------------------|
|---------------------------------------------------|
|--------------------5------------------------------|
|--5-----------3-----------6-----------5------3-----|
|---------------------------------------------------|



      

then Riff B Intro  
then Riff B.1       
then Riff B.2
then Riff B.3   
(all these played exactly the same order as before)

then Riff A, end with this extra chord:
            
|------|Gtr1
|------|
|------|
|--9\--|
|--7\--|
|--0\--|
|
|
|
|------|Gtr2
|------|
|--9\--|
|--9\--|
|--7\--|
|--0\--|
            
Hard to play? Try these video lessons and learn fast. | Correct




comments powered by Disqus
↑ Back to top | Tablatures and chords are parodies/interpretations of the original songs. You may use it for private study, scholarship, research or language learning purposes only