» » »

Zyklon, Deduced To Overkill Tabs (ver.1)

Artists:  A B C D E F G H I J K L M N O P Q R S T U V W X Y Z # 

Deduced To Overkill Tabs (ver.1)

Zyklon Tabs
 Rating:
4.2/5 (5 votes)
Deduced To Overkill lessons Tabs too difficult? Try these video lessons and learn fast
1
                Zyklon - "Deduced To Overkill"

Music by Zamoth and Destructhor





Tablature Notation
------------------
..  - palm mute                 /  - slide up to
\  - slide down to              ~  - vibrato
h  - hammer on                  b  - bend
p  - pull off                   Suffixes for bend
ph - pinch harmonic             f - full bend    h - half bend
*  - see comment                r - release      t - tap bend
X  - percussion mute            ~ - vibrato bend
@  - slight palm mute           () - ghost note, sustained note
"  - tremolo pick


Tune down one whole step


Intro
|--------------|Gtr1&2
|--------------|
|--------------|
|-2-2-2--2-2-2-|
|-2-2-2--2-2-2-|
|-0-0-0--0-0-0-|
  . . .  . . . 



Riff A (4x)                                 
|----------------------|-------------------|-----|-------|Gtr1&2
|----------------------|-------------------|-----|-------|
|----------------------|-------------------|-----|-------|
|----------------------|-------------------|-----|-------|
|-------8"-7"----------|-------8"-7"-------|--3--|-2-2-2-|
|-5"-4"-------5"-4"-8"-|-5"-4"-------5"-4"-|--1--|-0-0-0-|
                                              .   . . .



|-------------------------------------------|Gtr1&2
|-------------------------------------------|
|-----------------------------7"---------7"-|
|----------------------2-2-2--7"--2-2-2--7"-|
|-------8"-7"----------2-2-2--5"--2-2-2--5"-|
|-5"-4"-------5"-4"-1--0-0-0------0-0-0-----|




Riff B (4x)
|--------------------------------------------------------------|---------|Gtr1&2
|--------------------------------------------------------------|---------|
|----------------------------------7"--------------------------|---------|
|-2-x-x-2-x-x-x-x-2-x-x-3-2-x-x-2--7"--2-x-x-2-x-x-x-x-2-x-x-3-|-7"--6-3-|
|-2-x-x-2-x-x-x-x-2-x-x-3-2-x-x-2--5"--2-x-x-2-x-x-x-x-2-x-x-3-|-7"--6-3-|
|-0-x-x-0-x-x-x-x-0-x-x-1-0-x-x-0------0-x-x-0-x-x-x-x-0-x-x-1-|-5"--4-1-|



Riff C (1x before solo)
|--------------------------------|--------------------------------|Gtr1&2
|--------------------------------|--------------------------------|
|-----9-----10\9/10-----9-----12-|-----9-----10-9-10-----9--7--10-|
|-----9-----10\9/10-----9-----12-|-----9-----10-9-10-----9--7--10-|
|-----7------8\7/-8-----7-----10-|-----7------8-7--9-----7--5---8-|
|-000---000---------000---000----|-000---000---------000----------|
  ...   ...         ...   ...      ...   ...         ...



Solo 1
|--------------------------------------------------------------|Gtr 1
|---------------------------------------------8-10-12b(13)r12--|
|--------------------------------------8-9-11------------------|
|----------------------7-9-10---7-9-10-------------------------|
|--------7-9-10-7-9-10--------9--------------------------------|
|-7-8-11-------------------------------------------------------|





|--------------------------------------------------------------|Gtr2
|--------------------------------------------------------------|
|--------9------------10\9/10--------9-------------12----------|
|--------9------------10\9/10--------9-------------12----------|
|--------7-------------8\7/-8--------7-------------10----------|
|-0-0-0---------0-0-0---------0-0-0---------0-0-0--------------|
  . . .         . . .         . . .         . . .       



                                                          * (tremolo pick while sliding)
|-----12-14-15"p14p12\-----12-14-15"p14p12\-----12-15/20"-\7--|Gtr1
|---15-------------------15-------------------15--------------|
|-16-------------------16-------------------16----------------|
|-------------------------------------------------------------|
|-------------------------------------------------------------|
|-------------------------------------------------------------|




|-------------------------------------------------------------|Gtr2
|-------------------------------------------------------------|
|------------9--------------------10-9-10-------------9-7-10--|
|------------9--------------------10-9-10-------------9-7-10--|
|------------7---------------------8-7--8-------------7-5--8--|
|-0---0---0------------0---0---0------------0---0---0---------|
  .   .   .            .   .   .            .   .   .

            
                                                                      *raise & dive w/bar
                                                       * dive w/bar    \
|-8---12-7----------------8b(10)r8-7--12--8--10--7-|--22\------------22-\---|Gtr1 
|-----------8--8--10--7----------------------------|-----\---------------\--|
|--------------------------------------------------|------\-----------------|
|--------------------------------------------------|-------\----------------|
|--------------------------------------------------|------------------------|
|--------------------------------------------------|------------------------|
|
|
|
|-Gtr2-plays-Riff-C-with-variation-on-the-palm-----|-Gtr2-plays-Riff-C-with-|
|------mute-riffing-in-between-chords--------------|-tremolo-picking-and no-|
|--------------------------------------------------|-----palm-mutes.--------|
|--------------------------------------------------|---Slightly-different---|
|--------------------------------------------------|--timing-(listen to CD--|
|--------------------------------------------------|----for right timing)---|




|----------|
|----------|
|----------|
|--2-22-2--|
|--2-22-2--|
|--0-00-0--|
   . .. .


then Riff A (4x) with this ending (slight palm mutes):

|--------------------------|Gtr1&2
|--------------------------|
|--------------------------|
|--2--2-2-2--2-2-2--2-2-2--|
|--2--2-2-2--2-2-2--2-2-2--|
|--0--0-0-0--0-0-0--0-0-0--|
   .  . . .  . . .  . . .



then Riff B (4x) (repeat the last 3 chords on last time)



Riff D (2x)
|----------------------------------|----------------------------|Gtr1&2
|----------------------------------|----------------------------|
|--------------------------4"--3"--|--------------------4"--3"--|
|--------------------------4"--3"--|--------------------4"--3"--|
|--------------------------2"--1"--|--------------------2"--1"--|
|--0"----1"--3"--4"--0"------------|--0"----1"--3"--4"----------|



Riff E (2x)
|---------------------------|---------------------------|Gtr1&2
|---------------------------|---------------------------|
|---------------------------|---------------------------|
|---------------------------|---------------------------|
|-----------2"--------------|-----------2"--------------|
|--0"-1"-3"----1"-0"-1"-4"--|--0"-1"-3"----4"-1"-4"-1"--|



Solo 2 (Gtr2 plays Riff D)

      * dive w/bar
|--15ph\----------------------------------------------------------------------------|Gtr1
|-------\---------------------------------------------------------------------------|
|----------9--t14p10h12t14p10t14/17-t14p10h12t14p10t14/17-t17p9h12t16p9h12t17p9h12--|
|-----------------------------------------------------------------------------------|
|-----------------------------------------------------------------------------------|
|-----------------------------------------------------------------------------------|




|-----------------------------------------------------------------------------|Gtr1
|-------------------------------------------------------10-12-13----10-12-13--|
|--t16p9h12t16p9h12t16p9h12t16p9h12-t17p9-t16-9------12----------12-----------|
|-----------------------------------------------------------------------------|
|-----------------------------------------------------------------------------|
|-----------------------------------------------------------------------------|




|-----------10-12-13----------12-14-15----------13-15-17--|Gtr1
|--10-12-13----------12-14-15----------13-15-17-----------|
|---------------------------------------------------------|
|---------------------------------------------------------|
|---------------------------------------------------------|
|---------------------------------------------------------|




|-----------12-14-15----------10-12-13-12---t12p7t12p7t12p7t12p7t12p7t12p7--|Gtr1
|--12-14-15----------10-12-13-----------------------------------------------|
|---------------------------------------------------------------------------|
|---------------------------------------------------------------------------|
|---------------------------------------------------------------------------|
|---------------------------------------------------------------------------|




|--t12p8t12p8t12p8t12p8t12p8t12p8-t14p10t14p10t14p10t14p10t14p10t14p10--|Gtr1
|-----------------------------------------------------------------------|
|-----------------------------------------------------------------------|
|-----------------------------------------------------------------------|
|-----------------------------------------------------------------------|
|-----------------------------------------------------------------------|




|--t15p12t15p12t15p12t15p12t15p12t15p12--------------------10-12-13-15-13-10--|Gtr1
|-------------------------------------------------10-12-13--------------------|
|-----------------------------------------9-11-12-----------------------------|
|-----------------------------------------------------------------------------|
|-----------------------------------------------------------------------------|
|-----------------------------------------------------------------------------|




|-----------10-12-13-15-13-12-10-----------------12-15p12------12-15p12----|Gtr1
|--13-12-13----------------------13-12-10------13--------13--13--------13--|
|-----------------------------------------12-14------------14--------------|
|--------------------------------------------------------------------------|
|--------------------------------------------------------------------------|
|--------------------------------------------------------------------------|




|------12-15p12------|Gtr1
|----13--------13----|
|--14------------14--|
|--------------------|
|--------------------|
|--------------------|


then Riff E (2x) with this ending (slight palm mutes):


|-------------|Gtr1&2
|-------------|
|-------------|
|--6-3-6-3-2--|
|--6-3-6-3-2--|
|--4-1-4-1-0--|
   . . . . .



then Riff A (4x) with this ending (slight palm mutes):

|--------------------------|Gtr1&2
|--------------------------|
|--------------------------|
|--2--2-2-2--2-2-2--2-2-2--|
|--2--2-2-2--2-2-2--2-2-2--|
|--0--0-0-0--0-0-0--0-0-0--|
   .  . . .  . . .  . . .
            
Submit corrections

comments powered by Disqus
↑ Back to top | Zyklon Tabs for Deduced To Overkill. Lyrics for acoustic guitar and electric guitar. 1 Tablatures and chords are parodies/interpretations of the original songs. You may use it for private study, scholarship, research or language learning purposes only