» » »

Zyklon, 2000 Years Tabs (ver.1)

Artists:  A B C D E F G H I J K L M N O P Q R S T U V W X Y Z # 

2000 Years Tabs (ver.1)

Zyklon Tabs
 Rating:
4.3/5 (6 votes)
2000 Years lessons Tabs too difficult? Try these video lessons and learn fast
1
                Record Label: Candlelight
Tuning: DGCFAD

---------0---0----------|
----------0---0---------|
-------3---3---3--------|
-------2----------------|
-2-2-2-1----------------|
-0-0-0------------------|X3
 pm...

------------------|
------------------|
---------4--3-----|
---------3--2-----|
-2-2-2---2--1-----|
-0-0-0------------|
 pm...

---------0---0----------|
----------0---0---------|
-------3---3---3--------|
-------2----------------|
-2-2-2-1----------------|
-0-0-0------------------|X3
 pm...

------------------|
------------------|
---------4--3-----|
---------3--2-----|
-2-2-2---2--1-----|
-0-0-0------------|
 pm...

gtr1
-----------|
-----------|
-----------|
-----------|
-----------|
--1/4-1/3--|X4

gtr2
---------------------|
---------------------|
---------------------|
---------------------|
-3-5-6-5-6-5-3-5-----|
-1-3-4-3-4-3-1-3-----|X4
 pm.............

--------------|
--------------|
--------------|
--------------|
--4/11-5/10---|
--------------|X2

---0---0----------|
----0---0---------|
-3---3---3--------|
-2----------------|
-1----------------|
------------------|

---------0---0----------|
----------0---0---------|
-------3---3---3--------|
-------2----------------|
-2-2-2-1----------------|
-0-0-0------------------|X2
 pm...

------------------|
------------------|
---------4--3-----|
---------3--2-----|
-2-2-2---2--1-----|
-0-0-0------------|
 pm...

---0---0----------|
----0---0---------|
-3---3---3--------|
-2----------------|
-1----------------|
------------------|

---------0---0----------|
----------0---0---------|
-------3---3---3--------|
-------2----------------|
-2-2-2-1----------------|
-0-0-0------------------|X2
 pm...

------------------|
------------------|
---------4--3-----|
---------3--2-----|
-2-2-2---2--1-----|
-0-0-0------------|
 pm...

gtr1
-----------|
-----------|
-----------|
-----------|
-----------|
--1/4-1/3--|X4

gtr2
---------------------|
---------------------|
---------------------|
---------------------|
-3-5-6-5-6-5-3-5-----|
-1-3-4-3-4-3-1-3-----|X4
 pm.............

--------------|
--------------|
--------------|
--------------|
--4/11-5/10---|
--------------|X2

------------------------------------------1----|
------------------------------------------ph---|
-----------------------------------------------|
-----------------------------------------------|
-2-2-3-2-2-4-4/5-4-2-4-5-4-2-4-2-4-5-4-2-------|
-0-0-1-0-0-------2-0-2-3-2-0-2-0-2-3-2-0-------|X6
listen 2 the song 4 the pms

------------10-------------------------------|
------------ph-------------------------------|
-----------bend------------------------------|
---------------------------2-4-5-------------|
-2-2-2-2/6------3-3-2-2--2-------4-5-1-------|
-0-0-0-0--------1-1-0-0--0-------------------|

------------10--------------------------------------------------|
------------ph--------------------------------------------------|
-----------bend-------------------------------------------------|
------------------------------3333333222222222211111100000000---|
-2-2-2-2/6------3-3-2-2-2-2/6-4444444333333333322222211111111---|
-0-0-0-0--------1-1-0-0-0-0---0000000000000000000000000000000---|
                              im not 100% sure about this part

------------10---------------------------------1-----|
------------ph---------------------------------ph----|
-----------bend--------------------------------------|
-----------------------------------------------------|
-2-2-2-2/6------3-3--4-2-4-5-4-2-4-2-4-5-4-2---------|
-0-0-0-0--------1-1--2-0-2-3-2-0-2-0-2-3-2-0---------|

------------------------------------------------------------|
------------------------------------------------------------|
------------------------------------------------------------|
------------------------------------------------------------|
---4-2-4-5-4-2-4-2-4-5-4-2-----4-2-4-5-4-2-8---7-8-7-2------|
---2-0-2-3-2-0-2-0-2-3-2-0--1--2-0-2-3-2-0-6-0-5-6-5-0--3---|
                           vib                         vib

                                           only gtr 1
------------------------------------------------------------|
------------------------------------------------------------|
------------------------------------------------------------|
------------------------------------------------------------|
---4-2-4-5-4-2-4-2-4-5-4-2-----4-2-4-5-4-2-8---7-8-7-2------|
---2-0-2-3-2-0-2-0-2-3-2-0--1--2-0-2-3-2-0-6-0-5-6-5-0--3---|
                           vib                         vib

                                           gtr2
-------------------------------------------------------------|
-------------------------------------------------------------|
-------------------------------------------------------------|
-------------------------------------------6-0-5-6-5-0-3-----|
---4-2-4-5-4-2-4-2-4-5-4-2-----4-2-4-5-4-2-------------------|
---2-0-2-3-2-0-2-0-2-3-2-0--1--2-0-2-3-2-0-------------------|
                           vib

                                           only gtr 1
------------------------------------------------------------|
------------------------------------------------------------|
------------------------------------------------------------|
------------------------------------------------------------|
---4-2-4-5-4-2-4-2-4-5-4-2-----4-2-4-5-4-2-8---7-8-7-2------|
---2-0-2-3-2-0-2-0-2-3-2-0--1--2-0-2-3-2-0-6-0-5-6-5-0--3---|
                           vib                         vib

                                           gtr2
-------------------------------------------------------------|
-------------------------------------------------------------|
-------------------------------------------------------------|
-------------------------------------------6-0-5-6-5-0-3-----|
---4-2-4-5-4-2-4-2-4-5-4-2-----4-2-4-5-4-2-------------------|
---2-0-2-3-2-0-2-0-2-3-2-0--1--2-0-2-3-2-0-------------------|
                           vib

------------------------------------------1----|
------------------------------------------ph---|
-----------------------------------------------|
-----------------------------------------------|
-2-2-3-2-2-4-4/5-4-2-4-5-4-2-4-2-4-5-4-2-------|
-0-0-1-0-0-------2-0-2-3-2-0-2-0-2-3-2-0-------|X4
listen 2 the song 4 the pms

---------0---0----------|
----------0---0---------|
-------3---3---3--------|
-------2----------------|
-2-2-2-1----------------|
-0-0-0------------------|X3
 pm...

------------------|
------------------|
---------4--3-----|
---------3--2-----|
-2-2-2---2--1-----|
-0-0-0------------|
 pm...

---0---0----------|
----0---0---------|
-3---3---3--------|
-2----------------|
-1----------------|
------------------|

---------0---0----------|
----------0---0---------|
-------3---3---3--------|
-------2----------------|
-2-2-2-1----------------|
-0-0-0------------------|X2
 pm...

------------------|
------------------|
---------4--3-----|
---------3--2-----|
-2-2-2---2--1-----|
-0-0-0------------|
 pm...

gtr1
-----------|
-----------|
-----------|
-----------|
-----------|
--1/4-1/3--|X4

gtr2
---------------------|
---------------------|
---------------------|
---------------------|
-3-5-6-5-6-5-3-5-----|
-1-3-4-3-4-3-1-3-----|X4
 pm.............

--------------|
--------------|
--------------|
--------------|
--4/11-5/10---|
--------------|

-----------|
-----------|
-----------|
-----------|
--3/6-3/5--|
--1/4-1/3--| gtr 2 joins in 1 last time b4 the solo

---0---0----------|
----0---0---------|
-3---3---3--------|
-2----------------|
-1----------------|
------------------|

---------0---0----------|
----------0---0---------|
-------3---3---3--------|
-------2----------------|
-2-2-2-1----------------|
-0-0-0------------------|X2
 pm...

------------------|
------------------|
---------4--3-----|
---------3--2-----|
-2-2-2---2--1-----|
-0-0-0------------|
 pm...

Repeats riffs from solo until t fades out
            
Submit corrections

comments powered by Disqus
↑ Back to top | Zyklon Tabs for 2000 Years. Lyrics for acoustic guitar and electric guitar. 1 Tablatures and chords are parodies/interpretations of the original songs. You may use it for private study, scholarship, research or language learning purposes only