» » »

Settle Down Tabs (ver.3)

Artists:  A B C D E F G H I J K L M N O P Q R S T U V W X Y Z # 

Settle Down Tabs (ver.3)

Zwan
Rating:
0/5 (0 votes)

Hard to play? Try these video lessons and learn fast.
                Tuning: E A D G B E
 
This awesome solo is really one of the most melodic solos by Billy Corgan ( remember psychodelic solos from Gish Era ?) 
 
|---------------------------------12p10--10-12p10--10-12p10--10~-----------|
|-12p10--10-12p10--10-12p10--10~-------12--------12--------12--------------|
|------11--------11--------11----------------------------------------------|
|--------------------------------------------------------------------------|
|--------------------------------------------------------------------------|
|--------------------------------------------------------------------------|
                                                                              
 
|---------------------------------------12p10----10-12p10----10-14p12----12-14p12----12---|
|-12p10----10-12p10----10-12p10----10~--------12----------12----------15----------15------|
|-------11----------11----------11--------------------------------------------------------|
|-----------------------------------------------------------------------------------------|
|-----------------------------------------------------------------------------------------|
|-----------------------------------------------------------------------------------------|
                                                                              
 
|-19p17----17-19p17----17-19p17----17~--17p14----14-15p14----14-17p14--------------|
|-------19----------19----------19------------15----------15----------15-17--------|
|----------------------------------------------------------------------------------|
|----------------------------------------------------------------------------------|
|----------------------------------------------------------------------------------|
|----------------------------------------------------------------------------------|
                                                                              
 
|--------------------------------------------------------------------------|
|-17p15----15~-17-12p10----10~-12b13r12-12p10----10~-12--10p7---7----------|
|-------16--------------11--------------------11--------------9---9--------|
|--------------------------------------------------------------------------|
|--------------------------------------------------------------------------|
|--------------------------------------------------------------------------|
                                                                              
 
|-19gb21-17-------------------x-x-19b21-x-19b21-x-19b21vv-17----------------17------|
|-----------20-19-20-19-15-17--------------------------------20-19-20-19-20---------|
|-----------------------------------------------------------------------------------|
|-----------------------------------------------------------------------------------|
|-----------------------------------------------------------------------------------|
|-----------------------------------------------------------------------------------|
                                                                              
 
|----12-14-12----12--------10----------------------------------------------|
|-15----------15-----10-12----12-10-12-10\7-10b12--------------------------|
|--------------------------------------------------------------------------|
|--------------------------------------------------------------------------|
|--------------------------------------------------------------------------|
|--------------------------------------------------------------------------|
                                                                              
 
|--------------------------------------------------------------------------|
|-10XXXXXX-7XXXXXX---------------------------------------------------------|
|------------------9XXXXXX-7XXXXXX-9XXXXXX-7XXXXXX-------------------------|
|--------------------------------------------------9XXXXXX-7XXXXXX---------|
|--------------------------------------------------------------------------|
|--------------------------------------------------------------------------|
     XXX = tremolo picking ---> means pick as fast as you can :-)                   
 
|--------------------------------------------------------------------------------7-------------------------|
|-----------------------------------------------------------7b9r7b9r7-------10~~~--------------------------|
|-----------------------------------------7b8r7-9b11r9p7~-------------9-7----------9b11r9~--7--9-9gb11~~---|
|-7/9-9~--9-9\7-7~----7~--------7-9b10r11------------------------------------------------------------------|
|-------------------9----9---9-----------------------------------------------------------------------------|
|----------------------------------------------------------------------------------------------------------|
 

An alternate way of playing the solo by using tapping
(I haven´t seen them playing this, so I don´t know how Billy actually play it) :
 
|------------------------------------------t12p10p7h10-t12p10p7h10-t12p10p7h10~--|
|--t12p10p7h10--t12p10p7h10--t12p10p7h10~----------------------------------------|
|--------------------------------------------------------------------------------|
|--------------------------------------------------------------------------------|
|--------------------------------------------------------------------------------|
|--------------------------------------------------------------------------------|
                                                                              
|------------------------------------------t12p10p7h10-t12p10p7h10-t14p12p10h12--t14p12p10h12--|
|--t12p10p7h10--t12p10p7h10--t12p10p7h10~------------------------------------------------------|
|----------------------------------------------------------------------------------------------|
|----------------------------------------------------------------------------------------------|
|----------------------------------------------------------------------------------------------|
|----------------------------------------------------------------------------------------------|
 
|-t19p17p14h17-t19p17p14h17-t19p17p14h17~--t17p14p10h14-t15p14p10h10-t17p14p10h12~--|
|-----------------------------------------------------------------------------------|
|-----------------------------------------------------------------------------------|
|-----------------------------------------------------------------------------------|
|-----------------------------------------------------------------------------------|
|-----------------------------------------------------------------------------------|
                                                                              
 
|--------------------------------------------------|
|-t17p15p12h15-t15~-t12p10p7h10-t10~-t10p7p5h7p7~--|
|--------------------------------------------------|
|--------------------------------------------------|
|--------------------------------------------------|
|--------------------------------------------------|
 
   + rest of solo 
 
|-19gb21-17-------------------x-x-19b21-x-19b21-x-19b21vv-17----------------17------|
|-----------20-19-20-19-15-17--------------------------------20-19-20-19-20---------|
|-----------------------------------------------------------------------------------|
|-----------------------------------------------------------------------------------|
|-----------------------------------------------------------------------------------|
|-----------------------------------------------------------------------------------|
                                                                              
 
|----12-14-12----12--------10----------------------------------------------|
|-15----------15-----10-12----12-10-12-10\7-10b12--------------------------|
|--------------------------------------------------------------------------|
|--------------------------------------------------------------------------|
|--------------------------------------------------------------------------|
|--------------------------------------------------------------------------|
                                                                              
 
|--------------------------------------------------------------------------|
|-10XXXXXX-7XXXXXX---------------------------------------------------------|
|------------------9XXXXXX-7XXXXXX-9XXXXXX-7XXXXXX-------------------------|
|--------------------------------------------------9XXXXXX-7XXXXXX---------|
|--------------------------------------------------------------------------|
|--------------------------------------------------------------------------|
     XXX = tremolo picking ---> means pick as fast as you can :-)                   
 
|--------------------------------------------------------------------------------7-------------------------|
|-----------------------------------------------------------7b9r7b9r7-------10~~~--------------------------|
|-----------------------------------------7b8r7-9b11r9p7~-------------9-7----------9b11r9~--7--9-9gb11~~---|
|-7/9-9~--9-9\7-7~----7~--------7-9b10r11------------------------------------------------------------------|
|-------------------9----9---9-----------------------------------------------------------------------------|
|----------------------------------------------------------------------------------------------------------|
 
Please, let me know if you like it or not or if you have some corrections or questions ?  
 
 
This is my first tab. Hope you like it.
 
b .. bend
gb.. gradual bend
gr.. gradual release
h .. hammer on
r .. release
p .. pull off
T .. trill
W .. whammy bar dive
x .. mute
X\.. pick slide
\ .. slide down
/ .. slide up
~ .. vibrato
* .. artificial harmonic
**.. natural harmonic
. .. palm mute
().. optional note
XX.. tremolo pick
            
Hard to play? Try these video lessons and learn fast. | Correct




comments powered by Disqus
↑ Back to top | Tablatures and chords are parodies/interpretations of the original songs. You may use it for private study, scholarship, research or language learning purposes only