» » »

Settle Down Tabs (ver.2)

Artists:  A B C D E F G H I J K L M N O P Q R S T U V W X Y Z # 

Settle Down Tabs (ver.2)

Zwan
Rating:
0/5 (0 votes)

Tabs too difficult? Try these video lessons and learn fast.
                
Drop D-tuning


					1st Section
e|----------------------------------------------------------------------------------------------------
B|----------------------------------------------------------------------------------------------------
G|----------------------------------------------------------------------------------------------------
D|--------7--------7-----7--------7-------7-----7--------2-------2-----2-------2-------2-----2--
A|---5-5-----5-5-----5------4-4-----4-4----4------0-0----0-0-----0-----0-0-----0-0----0-----
D|----------------------------------------------------------------------------------------------------

					2nd Section
e|----------------------------------------------------------------------------------------------------
B|----------------------------------------------------------------------------------------------------
G|----------------------------------------------------------------------------------------------------
D|----------------------------------------------------------------------------------------------------
A|---------5-------5-----5-------5-------5----5------7-------7----7------7-------7-----7--------------
D|---5-5-----5-5-----5-------4-4----4-4-----4-----7-7----7-7----7----7-7----7-7-----7-----------------

Repeat 1st Section

						3rd Section

e|----------------------------------------------------------------------------------------------------
B|----------------------------------------------------------------------------------------------------
G|----------------------------------------------------------------------------------------------------
D|----------------------------------------------------------------------------------------------------
A|---------5-------5-----5-------5-------5----5-------0------0----0------0------0---0-----------------
D|---5-5-----5-5-----5-------4-4-----4-4----4-----0-0----0-0----0----0-0----0-0---0-------------------
            
Tabs too difficult? Try these video lessons and learn fast.




comments powered by Disqus
↑ Back to top | Tablatures and chords are parodies/interpretations of the original songs. You may use it for private study, scholarship, research or language learning purposes only