» » »

Zwan, Settle Down Tabs (ver.1)

Artists:  A B C D E F G H I J K L M N O P Q R S T U V W X Y Z # 

Settle Down Tabs (ver.1)

Zwan Tabs
 Rating:
4/5 (9 votes)
Settle Down lessons Tabs too difficult? Try these video lessons and learn fast
                Zwan
Off Mary Star of the Sea (2002)
Written by Billy Corgan
Eb Tuning

This song´s Intro´s played by the Bass. Paz also plays it 
all along verses. In live versions David plays the same,
but I didn´t wrote this down, so in my tab he doubles 
Matt.

Guitar 1: Billy
Guitar 2: Matt
Guitar 3: David
Bass: Paz



Paz
|--------14-------14----14-------14-------14----14---|
|--12-12----12-12----12----11-11----11-11----11------|
|----------------------------------------------------|
|----------------------------------------------------|

Paz
|--------14-------14----14-------14-------14----14---|
|----------------------------------------------------|
|--12-12----12-12----12----12-12----12-12----12------|
|----------------------------------------------------|

Paz
|-----------------------------------------------|
|--------12-------12----12-----12-----12--------| 
|--10-10----10-10----10----9-9----9-9----9-10---| 
|-----------------------------------------------|

Paz
|----------------------------------------------------|
|--------11-------11----11-------14-------14----14---| repeat
|--12-12----12-12----12----12-12----12-12----12------| all this
|----------------------------------------------------|

Paz
|--------------------------------------------------------------|
|------12-----12---12-0-0-12-0-0-12-0-12-0-0-12-0-0-12-12------|
|--9-9----9-9----9----------------------------------------12---|
|--------------------------------------------------------------|



Throw this in during the Intro:

Billy + Matt + Pajo
|--------|--------|
|--------|--------|
|--7-7---|--7-7---|
|--7-7---|--7-7---|
|--5-4---|--5-5---|
|--------|--------|


Bridge:

Billy
|-----------------------------------------------------|
|-----------------------------------------------------|
|--7-----7------------------------------7-------------|
|--7-----7---------7------------5-------7-------7-----|
|--5-----4---------7------------5-------5-------7-----|
|------------------5------------3---------------5-----|

Matt
|-----------------------------------------------------|
|-----------------------------------------------------|
|-----------------------------------7-----------------|
|--7/9-9-9-9\7-7---7----------7/9-9---9\7-7---7--9b---|
|----------------9---9-7--------------------9---------|
|------------------------10---------------------------|

David strums the same chords with other voicings.

Repeat


Verse:

Throw this in during the Verse:

Billy + Matt + Pajo
|--------|--------|
|--------|--------|
|--7-7---|--7-7---|
|--7-7---|--7-7---|
|--5-4---|--5-5---|
|--------|--------|

Paz plays the Intro


Chorus:

Billy
|------------------------|
|--3---------------------|
|--2-----(0)-------------|
|--0------2---------5----|
|--0------2---------5----|
|---------0---------3----|

Matt
|------------------------|
|--7b~~------------------|
|-------------7------7---|
|---------7-9----7-9-----|
|-------9----------------|
|------------------------|

David strums the same chords with other voicings.


Bridge: same

Chorus: same


Interlude:

Billy (distortion/delay/reverb)
|-------------------------------------|
|-------------------------------------|
|-------------------------------------|
|--4-4-4-4-4-4-4-4-4-4-4-4-4-4-4-4----|
|--4-4-4-4-4-4-4-4-4-4-4-4-4-4-4-4----|
|--2-2-2-2-0-0-0-0-2-2-2-2-0-0-0-0----|

then

Billy + David
|--0----3------2------2-------------------|
|--2----3------3------3-------------------|
|--2----0------4------2-------------------|
|--2----0------4------0-------------------|
|--0----2------2--------------------------|
|-------3---------------------------------|

Matt
|---------------------------------------|-----|
|---------------------------------------|-----| the
|----------6h8p6----------6-7---6-6h7---|-----| second
|--7-7-9-9-------9-7--9-9-----7-------9-|-7---| time
|---------------------------------------|-----|
|---------------------------------------|-----|

repeat


Verse:

Paz plays the Main Bass Line

Matt
|----------------------------------|
|---------10--------------10-------|
|----11------11-11---11-------11---| 4 times
|--0----0----------0----0----------|
|----------------------------------|
|----------------------------------|

Matt
|---------9----------10-9---------------------|
|-----------10----10------10----------10------|
|----11--------11------------11-9--11----11---|
|--0----0-------------------------------------|
|---------------------------------------------|
|---------------------------------------------|


Bridge: same

Chorus: same (undistorted)

Bridge: same (undistorted)


Guitar Solo:

David and Matt play around a D|Dmaj7|A|G|D|A Progression (4 times)

t=tapping 

Billy (distortion/Chorus)
|----------------------------------t12p10----t12p10----t12p10------|
|--t12p10----t12p10----t12p10---t10------t12-------t12-------t12---|
|--------t11-------t11-------t10-----------------------------------|
|------------------------------------------------------------------|
|------------------------------------------------------------------|
|------------------------------------------------------------------|

Billy (distortion/Chorus)
|--10---------------------------------t12p10----t12p10----t12h14p12p10-12---|
|-----t12p10----t12p10----t12p10---t10------t12-------t12-------------------|
|-----------t11-------t11-------t10-----------------------------------------|
|---------------------------------------------------------------------------|
|---------------------------------------------------------------------------|
|---------------------------------------------------------------------------|

Billy (distortion/Chorus)
|--19p17----19p17----19p17----17-17p14----14------------|
|--------19-------19-------19----------15----17p15h17---|
|-------------------------------------------------------|
|-------------------------------------------------------|
|-------------------------------------------------------|
|-------------------------------------------------------|

Billy (distortion/Chorus)
|--12p10----10h12--------------------------------|
|--------12-------12p10----10-12-12-10----10-----|
|-----------------------11-------------11--------|
|------------------------------------------------|
|------------------------------------------------|
|------------------------------------------------|

Billy (distortion/Chorus)
|--19b-17--------------------19-19b-17-15-14-15-14-15-17------|
|---------20-19-20-19-15-17-----------------------------------|
|-------------------------------------------------------------|
|-------------------------------------------------------------|
|-------------------------------------------------------------|
|-------------------------------------------------------------|

Billy (distortion/Chorus)
|------------------------------------------------------------|
|--t10t10t10t7t7t7-------------------------------------------|
|-----------------t9t9t9-t7t7t7-t9t9t9-t7t7t7----------------|
|--------------------------------------------t9t9t9-t7t7t7---|
|------------------------------------------------------------|
|------------------------------------------------------------|

Billy (distortion/Chorus)
|-----------------------------------------------------|
|-----------------------------------------------------|
|-----------------------------------7-----------------|
|--7/9-9-9-9\7-7---7----------7/9-9---9\7-7---7--9b---|
|----------------9---9-7--------------------9---------|
|------------------------10---------------------------|


End on: 

Guitar 2: D5~~~ 
Guitar 3:      D5~~~


"Honestly"
            
Submit corrections

comments powered by Disqus
↑ Back to top | Zwan Tabs for Settle Down. Lyrics for acoustic guitar and electric guitar. Tablatures and chords are parodies/interpretations of the original songs. You may use it for private study, scholarship, research or language learning purposes only