>
 >
El Sol

El Sol Guitar Tabs

Zwan - El Sol chords, tabs, tablatures, lyrics

Guitar lessons | Add/correct | Request | Top 50 tabs Artists:  A B C D E F G H I J K L M N O P Q R S T U V W X Y Z 0-9

El Sol Guitar Tabs – Zwan

CD, Sheet music, Poster

Do you like El Sol? Share with your friends now
ChordsTabsUkulele
Em D A G

-7---x--------- I like to play the rhythm parts 
-8---7---5---3- using barchords,
-9---7---6---4- but open chords sound fine too.
-9---7---7---5-
-7---5---7---5-
---------5---3-

Intro/ Verse
Em D
Em D
A A

Chorus:
G D
G A

It's that simple, here's all the lead tab:

----------------
INTRO and VERSE
----------------

* The Rhythm Part is just as important as the lead to give the song that swing feel.
* The rhythm parts are played clean, but a tiny amount of overdrive might sound good.
* For the lead parts, I use a very light distortion.
* No riff plays over the "A" Chord, the lead is silent here. But there is an A Octave
in later verses that you can add.


Rhythm Em D

Lead
E|-------------------------------------|-------------------------------------|
B|-------------------------------------|-------------------------------------|
G|--11-11-11---9-9---11-11-7-7/11-11\7-|--11-11-11---9-9---11-11-7-7/11-11\7-| 
D|-------------------------------------|-------------------------------------|
A|--9--9--9----7-7---9--9--5-5/9--9\-5-|--9--9--9----7-7---9--9--5-5/9--9\-5-|
E|-------------------------------------|-------------------------------------|

Rhythm Em D

Lead
E|-------------------------------------|-------------------------------------|
B|-------------------------------------|-------------------------------------|
G|--11-11-11---9-9---11-11-7-7/11-11\7-|--11-11-11---9-9---11-11-7-7/11-11\7-| 
D|-------------------------------------|-------------------------------------|
A|--9--9--9----7-7---9--9--5-5/9--9\-5-|--9--9--9----7-7---9--9--5-5/9--9\-5-|
E|-------------------------------------|-------------------------------------| 

Rhythm A

E|-------------------------------------|-------------------------------------|
B|-------------------------------------|-------------------------------------| This is
G|--5--5--5--5--5--5--5--5--5--5--5--5-|--5--5--5--5--5--5--5--5--5--5--5--5-| a sort of
D|--7--7--7--7--7--7--7--7--7--7--7--7-|--7--7--7--7--7--7--7--7--7--7--7--7-| pre-chorus
A|--7--7--7--7--7--7--7--7--7--7--7--7-|--7--7--7--7--7--7--7--7--7--7--7--7-|
E|--5--5--5--5--5--5--5--5--5--5--5--5-|--5--5--5--5--5--5--5--5--5--5--5--5-|


-------
CHORUS:
-------
G D

Lead
E|-------------------------------------|-------------------------------------|
B|-------------------------------------|-------------------------------------|
G|--11-11--9-9--7-7--------------------|-14-14--10-12--11-11-----------------|
D|-------------------------------------|-------------------------------------|
A|--9--9---7-7--5-5--------------------|-12-12--10-12--9--9------------------|
E|-------------------------------------|-------------------------------------|
so low

G (Lead tabbed below) A (rhythm tabbed below)

Lead
E|-------------------------------------|-------------------------------------|
B|-------------------------------------|-------------------------------------|
G|--11-11--9-9--7-7--------------------|--5--5--5--5--5--5--5--5--5--5--5--5-|
D|-------------------------------------|--7--7--7--7--7--7--7--7--7--7--7--7-|
A|--9--9---7-7--5-5--------------------|--7--7--7--7--7--7--7--7--7--7--7--7-|
E|-------------------------------------|--5--5--5--5--5--5--5--5--5--5--5--5-|

Play twice.


-----------
Middle bit: 
-----------

Drum and single guitar only.

(I had to let you go)

G (strum once, let ring out)
D (strum once, let ring out)
G (strum once, let ring out) (* enter small lead fill)
A 


For that lead fill on the second G, I just play these few notes:

E------------------- I don't know if its right
B----3-----3-----3-- but it sounds good.
G------0-----0------
D--0-----0-----0----
A-------------------
E-------------------


Then play a normal chorus





Comments


Popular Zwan tabs & chords
Declarations Of Faith Chords
El Sol Chords
Endless Summer 2 Tabs
Lyric 2 Tabs
Lyric Intro 1 Tabs
Of A Broken Heart Tabs
Settle Down 1 Tabs
Desire Ukulele
El Sol Ukulele
Of A Broken Heart Ukulele


Song lyrics



↑ Back to top | Tablatures and chords are parodies/interpretations of the original songs. You may use it for private study, scholarship, research or language learning purposes only
© 2014 AZChords.com Contact us | Privacy policy | DMCA | Add/correct tabs | Request tabs | Top 50 tabs