» » »

Dont Let Me Down Tabs (ver.1)

Artists:  A B C D E F G H I J K L M N O P Q R S T U V W X Y Z # 

Dont Let Me Down Tabs (ver.1)

Zwan
Rating:
0/5 (0 votes)

Hard to play? Try these video lessons and learn fast.
                "Dont let me down" is one of the new songs performed live
I have no idea about the solo, but im still trying to figure it out.

These are the two parts repeated all along the song.

standard tuning
e------------(9)----------(9)--/ --->eventually played,
B------9------------9----------/      I think
G--11----------11--------------/
D--------11-----------11-------/
A------------------------------/
E------------------------------/

e------------(7)----------(7)--/ --->eventually played,
B------7------------7----------/      I think
G--9------------9--------------/
D--------9-------------9-------/
A------------------------------/
E------------------------------/
            
Hard to play? Try these video lessons and learn fast. | Correct




comments powered by Disqus
↑ Back to top | Tablatures and chords are parodies/interpretations of the original songs. You may use it for private study, scholarship, research or language learning purposes only