» » »

Zwan, Chrysanthemum Bass tabs (ver.1)

Artists:  A B C D E F G H I J K L M N O P Q R S T U V W X Y Z # 

Chrysanthemum Bass tabs (ver.1)

Zwan Tabs
 Rating:
4/5 (4 votes)
Chrysanthemum lessons Tabs too difficult? Try these video lessons and learn fast
1
                

drop D tuning.....

intro
G--------------------------------------
D--------------------------------------
A--------------------------------------
D-5-9-7-0------------------------------

pre-verse
G--------------------------------------
D--------------------------------------
A-5-7-10-------------------------------
D--------------------------------------

verse
G--------------------------------------
D--------------------------------------
A--------------------------------------
D-0-2-5--------------------------------

"now the time has come...."
G--------------------------------------
D--------------------------------------
A------7-------------------------------
D-5-9-----7----------------------------

play verse again a few times

chorus
G--------------------------------------
D--------------------------------------
A--------------------------------------
D-9-10-5-7-2-0--9-10-5-7-2-5-0---------

intro again

"now the time has come..." part again

more verse

chorus

intro again

play this once (when bass comes in after little interlude thing)
G--------------------------------------
D--------------------------------------
A-5-7-10-------------------------------
D--------------------------------------

more verse

intro again

outro
G--------------------------------------
D--------------------------------------
A--------------------------------------
D-0-9-0-10-0-5-0-7-0-2-0-5-0-0---------

you might wanna mute those opens (except for the last one). 

i'm too lazy to write out the rhythm and how many times you play each one. just 
figure it out. there's also some slight variations, but they're really easy
and not worth the time it takes to write them.
            
Submit corrections

comments powered by Disqus
↑ Back to top | Zwan Bass for Chrysanthemum. Lyrics for acoustic guitar and electric guitar. 1 Tablatures and chords are parodies/interpretations of the original songs. You may use it for private study, scholarship, research or language learning purposes only