» » »

Zveri, Rajony Kvartaly Bass tabs (ver.1)

Artists:  A B C D E F G H I J K L M N O P Q R S T U V W X Y Z # 

Rajony Kvartaly Bass tabs (ver.1)

Zveri Tabs
Rating:
0/5 (0 votes)
Rajony Kvartaly lessons Tabs too difficult? Try these video lessons and learn fast
                Intro
G|-------- -------- -------- ---------|
D|----0--- -------2 3--20--- 2--------|
A|0--3---- ---300-- -------- ---300---|
E|-------- 0------- -------- -------3-|

Verse

G|-------- -------- -------- -------- -------- -------- -------- --------
D|----0--- 2------- ----0--- 2------- ----0--- -------2 3--20--- 22222222
A|0--3---- ---300-- 0--3---- ---300-- 0--3---- ---3023- -------- --------
E|-------- -------3 -------- -------3 -------- 0------- -------- --------

Chorus

G|-------- -------- -------- -------- -------- -------- -------- --------
D|----0--- -------2 3--20--- 2------- ----0--- -------2 3--20--- 2-------
A|0--3---- ---300-- -------- ---300-- 0--3---- ---3023- -------- ---300--
E|-------- 0------- -------- -------3 -------- 0------- -------- -------3

Verse

G|-------- -------- -------- -------- -------- -------- -------- --------
D|----0--- 2------- ----0--- 2------- ----0--- -------2 3--20--- 22222222
A|0--3---- ---300-- 0--3---- ---300-- 0--3---- ---3023- -------- --------
E|-------- -------3 -------- -------3 -------- 0------- -------- --------

Chorus

G|-------- -------- -------- -------- -------- -------- -------- --------
D|----0--- -------2 3--20--- 2------- ----0--- -------2 3--20--- 2-------
A|0--3---- ---300-- -------- ---300-- 0--3---- ---3023- -------- ---300--
E|-------- 0------- -------- -------3 -------- 0------- -------- -------3

Solo 1

G|-------- -------- -------- -------- --------- --------- --------- ---------
D|-------- -------- -------- -------- --------- --------- --------- ---------
A|0-3-5>0- 5-3----- 0-3-5>0- 5-3----- 003355035 553300--0 003355035 553300--0
E|-------- ----5>0- -------- ----5>0- --------- ------03- --------- ------03-

Verse
Chorus
Solo
            
Submit corrections

comments powered by Disqus
↑ Back to top | Zveri Bass for Rajony Kvartaly. Lyrics for acoustic guitar and electric guitar. Tablatures and chords are parodies/interpretations of the original songs. You may use it for private study, scholarship, research or language learning purposes only