» » »

Zveri, Napitki Pokrepche Tabs (ver.1)

Artists:  A B C D E F G H I J K L M N O P Q R S T U V W X Y Z # 

Napitki Pokrepche Tabs (ver.1)

Zveri Tabs
 Rating:
4/5 (4 votes)
Napitki Pokrepche lessons Tabs too difficult? Try these video lessons and learn fast
1
                Intro:Dm G C Am


Intro, solo:
e||--------------------|-------------------|--------------------|
B||-----------3--------|-------------------|--------------------|
G||--------------------|--5----------------|-----------5--------|
D||--5-----------------|-------------------|--3-----------------|
A||--------------------|-------------------|--------------------|
E||--------------------|-------------------|--------------------|

e|-------------------|--------------------|-------------------|
B|-------------------|-----------3--------|--1----------------|
G|--3----------------|--0-----------------|-------------------|
D|-------------------|--------------------|-------------------|
A|--------------------|-------------------|-------------------|
E|--------------------|-------------------|-------------------|

e|-----------3--------|--------------------|--------------------|
B|--3-----------------|--------------------|-----------3--------|
G|--------------------|--3--------2--------|--0-----------------|
D|--------------------|--------------------|--------------------|
A|--------------------|-------------------|---------------------|
E|--------------------|-------------------|---------------------|

e|-------------------|--------------------|-------------------|
B|--1----------------|-----------1--------|-------------------|
G|-------------------|--------------------|--3----------------|
D|-------------------|--3-----------------|-------------------|
A|--------------------|-------------------|-------------------|
E|--------------------|-------------------|-------------------|

e|--------------------|-------------------|--------------------|
B|-----------3--------|--1----------------|--3--------1--------|
G|--0-----------------|-------------------|--------------------|
D|--------------------|-------------------|--------------------|
A|--------------------|-------------------|--------------------|
E|--------------------|-------------------|--------------------|

e|-------------------||
B|-------------------||
G|--3----------------||
D|-------------------||
A|--------------------|
E|--------------------|



Am              Dm
I nigde i ni vo skol'ko
  G              Am
Povstrechalis' i zabyli
Bryzgi, kapel'ki, oskolki
Nikogo ne zatsepili

Bryzgi, kapel'ki na veter
I tebia nikto ne tronet
Diadia Stiopa na konfete
Pomeshchaetsia v ladoni

Pripev:
   Dm       G        C       Am
Napitki pokrepche, slova pokoroche
Tak proshche, tak legche, stiraiutsia nochi
Zvonki bez otveta, slova i ulybki
Vcherashnee leto - smeshnaia oshibka

A davaj kak-budto prazdnik
V nebo shariki saliuty
Sinij, belyj, zhioltyj, krasnyj
Bryzgi, kapel'ki, minuty

Padaiu na rovnom meste
Zatsepit'sia by za vozdukh
Tam, gde nolik, stavil krestik
Tam, gde rano, stavil pozdno

Pripev:
Napitki pokrepche, slova pokoroche
Tak proshche, tak legche, stiraiutsia nochi
Zvonki bez otveta, slova i ulybki
Vcherashnee leto - smeshnaia oshibka

Bryzgi, kapel'ki, minuty
Stanovilsia chempionom
Vybiral sebe marshruty
Vybiral sebe perrony

I nigde i ni vo skol'ko
Chto by ne bylo voprosov
Bryzgi, kapel'ki, oskolki
Kholostye papirosy

Pripev:
Napitki pokrepche, slova pokoroche
Tak proshche, tak legche, stiraiutsia nochi
Zvonki bez otveta, slova i ulybki
Vcherashnee leto - smeshnaia oshi
            
Submit corrections

comments powered by Disqus
↑ Back to top | Zveri Tabs for Napitki Pokrepche. Lyrics for acoustic guitar and electric guitar. 1 Tablatures and chords are parodies/interpretations of the original songs. You may use it for private study, scholarship, research or language learning purposes only