» » »

Zutons, You've Got A Friend In Me Tabs (ver.1)

Artists:  A B C D E F G H I J K L M N O P Q R S T U V W X Y Z # 

You've Got A Friend In Me Tabs (ver.1)

Zutons Tabs
Rating:
0/5 (0 votes)
Hard to play? Try these video lessons and learn fast.
                The Zutons - You've Got A Friend In Me


main chords:

      F#m    E    G#m
e------2-----0-----4-----------------------|
B------2-----0-----4-----------------------|
G------2-----1-----4-----------------------|
D------4-----2-----6-----------------------|
A------4-----2-----6-----------------------|
E------2-----0-----4-----------------------|


intro:

e-----2-----------0--------4--2-----------|
B-----2--------------------------2--------|
G-----------------------------------2-----|
D--------------------------------------4--|
A-----------------------------------------|
E--2--------3--0-----0h4------------------|

solo:

e--------------------------------------|
B-------------------12^14^12p10--12^14-|
G------9--11^13^11---------------------|
D--11----------------------------------|
A--------------------------------------|
E--------------------------------------|

e-----------------------------------------------------------------------|
B-----------------------------------------------------------------------|
G------9--11^13^11--11--9-----------------------------------------------|
D--11----------------------11-------------------7-----------------------|
A------------------------------12--9------7--9-----9--9--7h9--7---------|
E----------------------------------------------------------------9---5--|

e-----------------------------------------------------------------------|
B-----------------------------------------------------------------------|
G-----------------------------------------------------------------------|
D-----------------------------------------------------------------------|
A-----------------------------------------------------------------------|
E--5--7s9--7--7--7^8^7--5--2--------------------------------------------|


F#m  E  G#m ...

     D         C#m        Bm
e-----------------------------------------------------------------------|
B----------7---------5---------3----------------------------------------|
G-------7---------6---------4-------------------------------------------|
D----7---------6---------4----------------------------------------------|
A-----------------------------------------------------------------------|
E-----------------------------------------------------------------------|


F#m ...
            

comments powered by Disqus
↑ Back to top | Zutons Tabs for You've Got A Friend In Me. Lyrics for acoustic guitar and electric guitar. Tablatures and chords are parodies/interpretations of the original songs. You may use it for private study, scholarship, research or language learning purposes only